Beastie Boys - Shes Crafty Text Guitar Tab

Learn the song with the online tablature player
Intro
e:|----------------|
B:|----------------|
G:|----------------|
D:|-5h7-7-7p5------|
A:|-----------7----|
E:|-------------8--|
Other part:
         (let ring)
e:|-----------------|
B:|-----------------|
G:|---7-----------x-|
D:|---7-----------x-|
A:|---5-----------x-|
E:|-----------------|

This is repeated through out the entire song.