Beat Crusaders - Kappa Mikey Text Guitar Tab

Learn song with the online tabulature player
Thanks to David, he pushed me into tabing out this song. way to go

Alright Now if you dont have this song ill send it over Email. lets get started

Beat Crusaders
kappa Mikey theme song

/ = slide
h = hammer on
p= hammer pull off

Intro:
guitar 1
|-------------------------------------|
|-------------------------------------|
|-9999999-6666666-2222222-4444444-----|
|-9999999-6666666-2222222-4444444-----|
|-7777777-4444444-0000000-2222222-----|
|-------------------------------------|
                                          >
Guitar 2                                   > x2
                                          >
|-------------------------------------|
|-5555545-5555545-5555545-5555545-----|
|-4444444-4444444-4444444-4444444-----|
|-------------------------------------|
|-------------------------------------|
|-------------------------------------|

after the intro
0:13 guitar 1  Verse
plam mute
|------------------------------------------|
|------------------------------------------|
|-9999999-8888888-6666666-2222222----------|
|-9999999-8888888-6666666-2222222----------|     x2
|-7777777-6666666-4444444-0000000----------|
|------------------------------------------|

     At 0:19 guitar 2 plays this
   with guitar 1 untill the coures
|------------------------------------------|
|----------------------------5547545-------|
|----------------------------4444444-------|      x1
|------------------------------------------|
|------------------------------------------|
|------------------------------------------|

the next time you come to the verse, guitar 2 picks this
this part that starts at 0:58, so forget about this go to the COURES
 |-------7---------------7---------------------|
 |---7-------7-------7-------7-----------------|
 |-9---9---9---9---9---9---9---9---------------|
 |---------------------------------------------|
 |---------------------------------------------|
 |---------------------------------------------|


0:27 Coures!
guitar 1
 |----------------------------------------------------------|
 |----------------------------------------------------------|
 |-99--------4/6/4-2--------------66666666-----2222-2-4-----|
 |-99---66---4/6/4-2--------------66666666-----2222-2-4-----|
 |-77---66---2/4/2-0--------------44444444-----0000-0-2-----|
 |------44--------------------------------------------------|
 Hey!  Look! Out in the streets!  Dont you see the man its kappa Mikey!
    Hey   Look
guitar 2
 |-12-12-12-12p11h12-12-12-12121212121212-11-11-11-11-12-14-|
 |----------------------------------------------------------|
 |----------------------------------------------------------|
 |----------------------------------------------------------|
 |----------------------------------------------------------|
 |----------------------------------------------------------|

play the coures 2 times then go to the start of the song,
then when you play the coures for the last time end it with an "A"
then it gose into the break down.


1:25
 |-------------------------------------------------------------------------|
 |-------------------------------------------------------------------------|
 |-77777777-33333333-77777777-3333-5---------------------------------------|
 |-77777777-33333333-77777777-3333-5---------------------------------------|
 |-55555050-11111010-55555050-1111-3---------------------------------------|
 |-------------------------------------------------------------------------|

all instruments stop at the time untill they come back at 1:44

Hey! Look! Out! streets!
Dont you see the man its kappa Mikey!
                    you play this part 2 times at the right spot
                    listen to the song and you get what im sayin
                   |---------------------------------------|
                   |---------------------------------------|
                   |------3-----5-----10-------------------|
                   |------3-----5--------------------------|
                   |------1-----3-----8--------------------|
                   |---------------------------------------|

At 1:52 the cords change a step up
guitar 1
|--------------------------------------------------------|
|--------------------------------------------------------|
|--10-10-----------5/7/5-3--------7777777-3-3333-5-------|
|--10-10-77--------5/7/5-3--------7777777-3-3333-5-------|
|--8--8--77--------3/5/3-1--------5555555-1-1111-3-------|
|--------55----------------------------------------------|
  Hey!  Look! Out in the streets!  Dont you see the man its kappa Mikey

just play this to the end, but at the last last note you play this
|-------------------------------------------------------|
|-------------------------------------------------------|
|-1010101010101010------------77777777--6---------------|
|-1010101010101010--77777777--77777777--6---------------|
|-8-8-8-8-8-8-8-8---77777777--55555555--4---------------|
|-------------------55555555----------------------------|
  Hey!  Look! Out in the streets!  Dont you see the man its kappa Mikey


Ok im done, if anything dosent seem cool just tell me.
Drummerdirtydee@yahoo.com

-Rusty S.

see you chumpets later