Beatles - Don't Let Me Down Text Guitar Tab

Learn the song with the online tablature player
Don't Let Me Down (Lennon/McCartney)
                                              The Beatles

Intro
|---------------------------------------|
|---------------------------------------|
|-------------9---9----9----------------|
|-------------9---9h11-9----------------|
|--------9h11----------------9--12--11--|
|-0-------------------------------------|

(Notes are synchronized with lyrics)

(Note: the E chord might be done in Emaj7)

              F#m                E
 Don't let me down, don't let me down
|-------------------------------------------------------------------|
|-------------------------------------------------------------------|
|-----------------------------------------9---9----9----------------|
|-----------------------------------------9---9h11-9----------------|
|------------------------------------9h11----------------9--12--11--|
|-------------------------------------------------------------------|

              F#m                E
 Don't let me down, don't let me down
|-------------------------------------------------------------------|
|-------------------------------------------------------------------|
|-----------------------------------------9---9----9----------------|
|-----------------------------------------9---9h11-9----------------|
|------------------------------------9h11----------------9--12--11--|
|-------------------------------------------------------------------|

 Nobody ever loves me like she does

 Guitar I
|------------------------------14\12--12---12\9--9----------------------------------------------------|
|------------------------------14\12--12---12\9--9---10-----------------------------------------------|
|--------------------------------------------------------11\9--9---9\6--6--6/8--8---------------------|
|-----------------------------------------------------------------------------------------------------|
|-----------------------------------------------------------------------------------------------------|
|-----------------------------------------------------------------------------------------------------|
|Guitar II
|-----------------------------------------------------------------------------------------------------|
|---------------------------------------------------------------------------------------5------5------|
|-----------------------------------------------------------------------------------------------------|
|-------------------------------------------------------------------------------6---6h7----6h7---7--6-|
|-----------------------------------------------------------------------------------------------------|
|-----------------------------------------------------------------------------------------------------|

 And if somebody ever   ... do me

 Guitar I
|---------------------------14\12--12---12\9--9--------------------------------------------4--4-------|
|---------------------------14\12--12---12\9--9--10--10\-7--7---7\5--4\2--2/5--4---5-------5--5-------|
|-----------------------------------------------------9\-6--6---6\4--4\2--2/4--4---4---4h6-4--4--6----|
|---------------------------------------------------------------------------------------------------6-|
|-----------------------------------------------------------------------------------------------------|
|-----------------------------------------------------------------------------------------------------|
|Guitar II
|-----------------------------------------------------------------------------------------------------|
|---------------------------------------------------------------------------------------5------5------|
|-----------------------------------------------------------------------------------------------------|
|-------------------------------------------------------------------------------6---6h7----6h7---7--6-|
|-----------------------------------------------------------------------------------------------------|
|-----------------------------------------------------------------------------------------------------|

              F#m                E
 Don't let me down, don't let me down
|-------------------------------------------------------------------|
|-------------------------------------------------------------------|
|-----------------------------------------9---9----9----------------|
|-----------------------------------------9---9h11-9----------------|
|------------------------------------9h11----------------9--12--11--|
|-------------------------------------------------------------------|

              F#m                E
 Don't let me down, don't let me down
|-------------------------------------------------------------------|
|-------------------------------------------------------------------|
|-----------------------------------------9---9----9----------------|
|-----------------------------------------9---9h11-9----------------|
|------------------------------------9h11----------------9--12--11--|
|-------------------------------------------------------------------|

(From "I'm in love for the first time")
|----------------------------------------------------------------------------------------------|
|----------------------------------------------------------------------------------------------|
|---------------------------------------------------------1h2----------------------------------|
|-2--1-----2--------2--------2-----2-----2--------4--1--------4-----6\-2-----4--1--2-----1-----|
|-------------4--------2--------------------2-----------------------------------------4-----2--|
|-------------------------------4-----2--------------------------------------------------------|

 Guitar I
|------------------------------------------------------------------------------|
|------------------------------------------------------------------------------|
|----------2-------------------------------------------------------------------|
|-4--1--------4-----6\-2-----4--1--2-----1-------------------------------------|
|-------------------------------------4----------------------------------------|
|-------------------------------------------0----------------------------------|
|Guitar II
|------------------------------------------------------------------------------|
|------------------------------------------------------------------------------|
|----------------------------------------------------9---9----9----------------|
|----------------------------------------------------9---9h11-9----------------|
|-----------------------------------------------9h11----------------9--12--11--|
|------------------------------------------------------------------------------|

              F#m                E
 Don't let me down, don't let me down
|-------------------------------------------------------------------|
|-------------------------------------------------------------------|
|-----------------------------------------9---9----9----------------|
|-----------------------------------------9---9h11-9----------------|
|------------------------------------9h11----------------9--12--11--|
|-------------------------------------------------------------------|

              F#m                E
 Don't let me down, don't let me down
|-------------------------------------------------------------------|
|-------------------------------------------------------------------|
|-----------------------------------------9---9----9----------------|
|-----------------------------------------9---9h11-9----------------|
|------------------------------------9h11----------------9--12--11--|
|-------------------------------------------------------------------|

 And from the first    ... done me

 Guitar I
|---------------------------14\12--12---12\9--9-------------------------------------------------------|
|---------------------------14\12--12---12\9--9--10--10\-7--7---7\5--4\2--2/5--4----------------------|
|-----------------------------------------------------9\-6--6---7\4--4\2--2/4--4----------------------|
|-----------------------------------------------------------------------------------------------------|
|-----------------------------------------------------------------------------------------------------|
|-----------------------------------------------------------------------------------------------------|
|Guitar II
|-----------------------------------------------------------------------------------------------------|
|---------------------------------------------------------------------------------------5------5------|
|-----------------------------------------------------------------------------------------------------|
|-------------------------------------------------------------------------------6---6h7----6h7---7--6-|
|-----------------------------------------------------------------------------------------------------|
|-----------------------------------------------------------------------------------------------------|

I guess nobody ever     ... done me

 Guitar I
|---------------------------14\12--12---12\9--9-------------------------------------------------------|
|---------------------------14\12--12---12\9--9--10--10\-7--7---7\5--4\2--2/5-----5---5-----5---------|
|-----------------------------------------------------9\-6--6---7\4--4\2--2/4---------4h6---4h6--4----|
|------------------------------------------------------------------------------6-------------------6--|
|-----------------------------------------------------------------------------------------------------|
|-----------------------------------------------------------------------------------------------------|
|Guitar II
|-----------------------------------------------------------------------------------------------------|
|---------------------------------------------------------------------------------------5------5------|
|-----------------------------------------------------------------------------------------------------|
|-------------------------------------------------------------------------------6---6h7----6h7---7--6-|
|-----------------------------------------------------------------------------------------------------|
|-----------------------------------------------------------------------------------------------------|

              F#m                E
 Don't let me down, don't let me down
|-------------------------------------------------------------------|
|-------------------------------------------------------------------|
|-----------------------------------------9---9----9----------------|
|-----------------------------------------9---9h11-9----------------|
|------------------------------------9h11----------------9--12--11--|
|-------------------------------------------------------------------|

              F#m                E
 Don't let me down, don't let me down
|-------------------------------------------------------------------|
|-------------------------------------------------------------------|
|-----------------------------------------9---9----9----------------|
|-----------------------------------------9---9h11-9----------------|
|------------------------------------9h11----------------9--12--11--|
|-------------------------------------------------------------------|

Piano Solo Chords

F#m    E    F#m    E

Outro
|---------------------------------|
|---------------------------------|
|-------9---9----9----------------|
|-------9---9h11-9----------------|
|--9h11----------------9--12--11--|
|---------------------------------|