Beck - Cellphones Dead Text Guitar Tab

Learn the song with the online tablature player
Intro

e|--------------------------------------------------------------------------|
B|--------------------------------------------------------------------------|
G|--------------------------------------------------------------------------|
D|-----------------------66666666-------------------------------------------|
A|-66666666---44444444------------99999999----11-11-11-11-11-11-11-11-11----|
E|--------------------------------------------------------------------------|

Main-

e|--------------------------------------------------------------------------|
B|--------------------------------------------------------------------------|
G|---------6----------------------------------------------------------------|
D|---8---------686----------------------------------------------------------|
A|--------4-4---------------------------------------------------------------|
E|--6-6---------------------------------------------------------------------|