Beloved - Allure Text Guitar Tab

Learn the song with the online tablature player
0:03
G|----------------------------------------------------------------------------------|
D|----------------------------------------------------------------------------------|
A|2-2-2--2-2----2-2-2--2-2----2-2-2--2-2----2-2-2--2-2------------------------------|
D|--------------------------------------------------------0-0-0--0-0----0-0-0--0-0--|

G|-----------------------------------------------------------|
D|-----------------------------------------------------------|
A|2-2-2---2-2----2-2-2---2-2--2~\----------------------------|
D|-------------------------------0-0-0---0-0----0-0-0---0-0--|

G|----------------------------------------------------------------------------------|
D|----------------------------------------------------------------------------------|
A|2-2-2--2-2----2-2-2--2-2----2-2-2--2-2----2-2-2--2-2------------------------------|
D|--------------------------------------------------------0-0-0--0-0----0-0-0--0-0--|x2

G|------|
D|------|
A|------|
D|-9\---|

G|----------------------------------------------------------------------------------|
D|----------------------------------------------------------------------------------|
A|2-2-2--2-2----2-2-2--2-2----2-2-2--2-2----2-2-2--2-2------------------------------|
D|--------------------------------------------------------0-0-0--0-0----0-0-0--0-0--|

G|----------------------------|
D|----------------------------|
A|2-2-2--2-2----2-2-2--2-2~~--|
D|----------------------------|

1:47
G|-----------------------|
D|-----------------------|
A|5-5-5-5---5-5-5555555--|
D|-----------------------|x2

2:00
G|-------------------|
D|-------------------|
A|22222----2222------|
D|-----0000----0000--|x8

G|----------------------------------|
D|----------------------------------|
A|----------------------------------|
D|44444444444444445555555555555555--|

G|-------------------|
D|-------------------|
A|22222----2222------|
D|-----0000----0000--|x2

G|----------------------------------|
D|----------------------------------|
A|----------------------------------|
D|44444444444444445555555555555555--|

2:45
G|---------------------------|
D|---------------------------|
A|-------------222222--------|
D|222-225500-0-------5500-0--|x4

3:09
G|--------------------|
D|--------------------|
A|2----------2--------|
D|--5-4-0------5-0-2--|x3

G|---------------------------------|
D|---------------------------------|
A|2----------2---------------------|
D|--5-4-0------4-2222222222222222--|