Ben Folds Five - Hospital Song Text Guitar Tab

Learn the song with the online tablature player
Intro
G---------------------------------|
D---------------------------------|
A---------------------------------|
E--4---4---4---4---4---4---4---4--|

Verse
"Lying awake in my..."
G------------------------------------------------------------|
D------------------------------------------------------------|
A----------------4--4--4--4--------4-6--6--6--6--------------|
E--4---4---4---4-------------4---4---------------6--6--6--6--|

G---------------------------------------------------------|
D---------------------------------------------------------|
A-3-4--4--4--4------------------------3-------------------|
E---------------6--6--6--6--1-------------------1---------|

G------------------------------------------------------|
D------------------------------------------------------|
A-3---------4---------3---------1----------------------|
E-----------------------------------------1------------|