Ben Harper - Down On Ground Text Bass Tab

Learn song with the online tabulature player
DOWN ON GROUND
              BEN HARPER-dall'album "FIGHT FOR YOUR MIND"
                                            tabulato da STEFANO BERTOCCO
                                                        sfighengjs@iol.it
                                                        18 dicembre 1999
                                                        Treviso, ITALIA

    VERSO
G------------------------------5/8--|-----------------------------------
D-----------------------------------|-----------------------------------
A---3-----3--5-----5--6-----3-------|-----------------------------------
E-----------------------------------|-----------------------------------


    FINE VERSO              (with variations)
G----------------------------------------5/8--|-------------------------
D---------------------------------3/(5)-------|-------------------------
A---3-----3--1-----1--0--------0--------------|-------------------------
E---------------------------------------------|-------------------------


    PONTE
G--------------------------------        -----------------|-------------
D--------------------------------        -----------------|-------------
A---3-----3--3--3--3--3--3--3--3-........--3-----1-----0--|-------------
E--------------------------------        -----------------|-------------