Ben Howard - Follaton Wood Chords

 
No chord
    
Standard guitar tuning:
E
A
D
G
B
E
Capo on 3 fret

Verse

c|-0---------|-0--------0-|-0---------|-0---------|
G|-0---------|-0--------0-|-0---------|-0---------|
G|-5---------|-5--------5-|-2---------|-2---------|
C|-0---------|-0--------0-|-0---------|-0---------|
G|-5---------|-5--------4-|-0---------|-0---------|
C|-0---------|-0--------0-|-5---------|-5---------|

Bridge

the bridge just refers to the different vocals.
c|-0---------|-0--------0-|-0---------|-0---------|
G|-0---------|-0--------0-|-0---------|-0---------|
G|-5---------|-5--------5-|-2---------|-2---------|
C|-0---------|-0--------0-|-0---------|-0---------|
G|-5---------|-5--------4-|-0---------|-0---------|
C|-0---------|-0--------0-|-5---------|-5---------|

Chorus

c|-0---------|-0----------|-0---------|-0---------|
G|-0---------|-0----------|-0---------|-0---------|
G|-7---------|-9----------|-2---------|-2---------|
C|-0---------|-12---------|-0---------|-0---------|
G|-0---------|-0----------|-0---------|-0---------|
C|-7---------|-9----------|-5---------|-5---------|
Structure

Verse

Bridge

Chorus

Verse

Bridge

Chorus

Bridge

Verse

Bridge

| / slide up | \ slide down | h hammer-on | p pull-off | ~ vibrato | + harmonic | x Mute note | b Bend | pb Pre-bend | br Bend release | pbr Pre-bend release | brb Bend release bend

All Content on this page is the property of the copyright owner of the original composition.