Better Than Ezra - One More Murder Text Guitar Tab

Learn the song with the online tablature player
Main Riff:
G---------------------------
D---------------------------
A-5-5-0-3h5-5-5-----1/3-3-3-
E---------------1-1---------

Break
          x 2
G---------------------|-------------------
D---------------------|-------------------
A-------3/5-------1/3-|-------------------
E-3-3-3-----1-1-1-----|-0-0-0-0-0-0-0-0-0-

"I say I can't feel..."
G-------------------
D-------------------
A-5-5-5-7-8-7-5-5-5-
E-------------------