Big Dumb Face - Mighty Penus Laser Text Guitar Tab

Learn the song with the online tablature player
Intro / Verse
|--------------------------------------------
|--------------------------------------------
|--------------------------------------------
|--------------------------------------5-----
|--4 0 4 3---0 4 5---0 4 0 3 3--3------------
|--------------------------------------------

Chorus

Add heavy distored part to the end of clean riff on the second time through.
Chorus Clean                                             Chorus Distorted
|--------------------------------------------|     |----------------------|
|--------------------------------------------|     |----------------------|
|--------------------------------------------|     |----------------------|
|--------------------------------------------|     |----------------------|
|---------7-----7----------3-----3-----------|     |--9 9 9 9 9 9 9 9-----|
|----7 7--7 7--7 7-3 3--3 3--3 3-------------|     |--9 9 9 9 9 9 9 9-----|

                                                    >>increase vol >>
Distorted verse
|----------------------------------|
|----------------------------------|
|----------------------------------|
|-4 0 4 3--0 4 5--0 4 0 3 3 5 3----|
|-4 0 4 3--0 4 5--0 4 0 3 3 5 3----|
|-4 0 4 3--0 4 5--0 4 0 3 3 3 3----|

Riff 1

|----------------------------------|
|----------------------------------|
|----------------------------------|
|----------------------------------|
|-4 4 4h5p4 -----------------------|
|----------------------------------|

riff 2

|----------------------------------|
|----------------------------------|
|----------------------------------|
|-7--7 7-7 7-----------------------|
|-7--7 7-7 7-----------------------|
|-7--7 7-7 7-----------------------|

intro / Verse x8
chorus clean x2
chorus distorted x1
intro / verse x4
chorus clean x2
chorus distorted x1
intro / verse x4
*pause*
intro / verse x4
chorus clean x2
*pause*
intro / verse x4
*pause*
distorted verse x4
*pause*
distorted verse x3
*pause*
riff 1 x10
riff 2x 21