Big Tent Revival - What Would Jesus Do Text Guitar Tab

Learn the song with the online tablature player
What Would Jesus Do
Big Tent Revival

The song starts out with no bass, then after the first drum roll it
comes in with this.
Verse
repeat 4 times
g ---------------------------------------------------------------
d ---------------------------------------------------------------
a -------5--5----------------------------------------------------
e -5---5-----0---0-0--0------------------------------------------

Chorus
play 2 times
g ---------------------
d ---------------------
a --5--5--7--7---------
e --------------5---5-5

g -------------------------------------
d -------------------------------------
a ---5---5---7--7--------------2---4--5
e ---------------------2--2-2----------

On the last chorus before the bridge the ending is:
                                             I need to know.....
g --------------------------------------------------------------
d --------------------------------------------------------------
a ---5--5---7---7------------2-----4---5----------------2-------
e -----------------2---2-2--------------------------------------

That is main parts of the song.  I haven't sat down and learned to
bridge.

I did all this from memory so if some of it is wrong forgive me.