Big Time Rush - Oh Yeah Text Guitar Tab

Learn song with the online tabulature player
Verse
G -----------------------------------|
D ---------------5-------------------| (x4)
A -55-77-88--887---55-77-88--887-3---|
E -----------------------------------|

Chorus

G ----------------------------------|
D ---------33333333-----------------|  (x3)
A -11111111--------3333333355555533-|
E ----------------------------------|

G ----------------------------------|
D ---------33333333-----------------|
A -11111111--------3333333333333333-|
E ----------------------------------|

(Verse) 

(Chorus)

Bridge

G --------------------------------------------------------|
D ----------------------------------------------3---------|
A -1--------5--------3--------5--------1----------------3-|
E --------------------------------------------------------|

(Chorus)

G -----------------------------------|
D ---------33333333------------------|  (x3)
A -11111111--------3333333355555533--|
E -----------------------------------|

G ------------------------------------|
D ---------33333333-------------------|
A -11111111--------3333333333333333/1-|
E ------------------------------------|

/ = Slide Down