Bigbang - Bad Boy Text Guitar Tab

Learn song with the online tabulature player
Tabbed by: SourChicken
E-Mail: sourchicken@gmail.com

For reference, here is my cover: http://www.youtube.com/watch?v=GDO-CD57iBw

G|----------------------------------------------|
D|-------------------------------------------3--|
A|-----2~ -0~ ------------2-22-2-3-33-------3---|
E|--3~ -------1~ --3-33-35------------1-11-1----|

0:27
G|------------------------------|
D|------------------------------|
A|---------2-22-2-0-00----------|
E|--3-33-35------------1-11--2--|

G|------------------------------|
D|------------------------------|
A|---------2-22-2-0-00----------|
E|--3-33-35------------1-11--2--|

G|--------------------------------|
D|-----------------------------3--|
A|---------2-22-25-3-33-------3---|
E|--3-33-35-------------1-11-1----|

G|------------------------------|
D|------------------------------|
A|---------2-22-2-0-00----------|
E|--3-33-35------------1-11--2--|

G|--------------------------------|
D|-----------------------------3--|
A|---------2-22-25-3-33-------3---|
E|--3-33-35-------------1-11-1----|

1:31
G|------------------------------|
D|------------------------------|
A|---------2-22-2-0-00----------|
E|--3-33-35------------1-11--2--|

G|------------------------------|
D|------------------------------|
A|---------2-22-2-0-00----------|
E|--3-33-35------------1-11--2--|

G|--------------------------------|
D|-----------------------------3--|
A|---------2-22-25-3-33-------3---|
E|--3-33-35-------------1-11-1----|

G|------------------------------|
D|------------------------------|
A|---------2-22-2-0-00----------|
E|--3-33-35------------1-11--2--|

G|--------------------------------|
D|-----------------------------3--|
A|---------2-22-25-3-33-------3---|
E|--3-33-35-------------1-11-1----|

--------------------------------------------------------| 
2:35                                                    | 
G|----------------------------------|                   | 
D|----------------------------------|                   | 
A|--/12--12-13-14--13-14-15--15-14--|                   | 
E|----------------------------------|                   | I
                                                        | M
G|---------------------------------------|              | P
D|----------------12-13-14--14-12--------|              | R
A|--12--12-13-14------------------12-14--|              | O
E|---------------------------------------|              | V
                                                        | 
G|--------------------------------------------|         | F
D|-------------------------/17--/21-19-17-19--|         | I
A|--12-12-13-14--13-14-15---------------------|         | L
E|--------------------------------------------|         | L
                                                        | E
G|------------------------12--------------------|       | R
D|---------------12-13-14----12-14----12--------|       | 
A|--12-12-13-14--------------------14----12-14--|       | 
E|----------------------------------------------|       | 
                                                        | 
--------------------------------------------------------| 

3:01
G|------------------------------|
D|------------------------------|
A|---------2-22-2-0-00----------|
E|--3-33-35------------1-11--2--|

G|--------------------------------|
D|-----------------------------3--|
A|---------2-22-25-3-33-------3---|
E|--3-33-35-------------1-11-1----|

G|------------------------------|
D|------------------------------|
A|---------2-22-2-0-00----------|
E|--3-33-35------------1-11--2--|

G|--------------------------------|
D|-----------------------------3--|
A|---------2-22-25-3-33-------3---|
E|--3-33-35-------------1-11-1----|