BigWig - 1-800-whipped Text Guitar Tab

Learn the song with the online tablature player
Intro
|-12-10-8-10~---12-10-8-15~---12-15-12-10-8---15-13-12-13-12-10-12-10-8-7-8-
|---------------------------------------------------------------------------
|---------------------------------------------------------------------------
|---------------------------------------------------------------------------
|---------------------------------------------------------------------------
|---------------------------------------------------------------------------

Bridge thing
|------------------------------------------
|------------------------------------------
|-5-5--------------------------------------
|-5-5-2-3-5-5-5-2-3-5-7-7--------3-3-2-3-5-
|-3-3-------5-5-------7-7-7-8-10-3-3-------
|-----------3-3-------5-5--------1-1-------

Verse is some ska chords that I'm not sure of, but they could be this

|-8--8--8--8--7-7-7-7--5-5-5-5--7-7-7-7-
|-8--8--8--8--8-8-8-8--6-6-6-6--8-8-8-8-
|-9--9--9--9--7-7-7-7--5-5-5-5--7-7-7-7-
|-10-10-10-10---------------------------
|---------------------------------------
|---------------------------------------

this part comes in somewhere (about 0:45 through), I've put the lyrics under so
you can follow it, there is also another part around 2:40 through the song where
it just plays the higher notes of these octaves.

|------------------------------------------------------------------
|------------------------------------------------------------------
|-12--10----9--7----12---10---9--7-7--12---10---9--7---9------5----
|-x---x-----x--x----x----x----x--x-x--x----x----x--x---x------x----
|-10--8-----7--5----10---8----7--5-3--10---8----7--5---7------3----
|------------------------------------------------------------------
  She falls asleep, she falls asleep, she falls asleep on the floor

Chorus
|----------------
|----------------
|-5--------------
|-5---5---7---3--
|-3---5---7---3--
|-----3---5---1--

Solo
similar to intro)
|-12-10-8-10--10-8-12-15--12-15-12-10-8--15-12-13-12-13-12-------------------
|----------------------------------------------------------15-14-13-15-13-13-
|----------------------------------------------------------------------------
|----------------------------------------------------------------------------
|----------------------------------------------------------------------------
|----------------------------------------------------------------------------

Sorry it's not yet complete, I'll try sort it out and finish it, should have
most of the elements to the song now though