Bill Justis - Raunchy Chords

Main Riff
 
No chord
    
Standard guitar tuning:
E
A
D
G
B
E
No capo
e|---------------|
B|---------------|
G|---------------|
D|---------3-3-0-|
A|-0-3-5---------|
E|---------------|
Repeat. . . . And... move up to: A string, 5th fret; A string, 8th fret; D string, 5th fret; D string, 8th fret(2x); D string, 5th fret
e|---------------|
B|---------------|
G|---------------|
D|-------5-8-8-5-|
A|-5-8-----------|
E|---------------|
Repeat. . . . Then back to. . . Open A string; A string, 3rd fret; A string 5th fret; D string 3rd fret(2x); D string open
e|---------------|
B|---------------|
G|---------------|
D|---------3-3-0-|
A|-0-3-5---------|
E|---------------|

All Content on this page is the property of the copyright owner of the original composition.