Biohazard - Authority Text Guitar Tab

Learn the song with the online tablature player
|--------------------------------------------------------|
|--------------------------------------------------------|
|--------------------------------------------------------|
|--------------------------------------------------4-----|

     A
2 times)
|--------------------------------------------------------|
|--------------------------------------------------------|
|--------------------------------------------------------|
|-0-0-0--3-3-3--1-1-1--4-4-4--0-0-0--3-3-3--1-1-1--4-----|

|--------------------------------------------------------|
|-------------5---------7---------5----------------------|
|--------7---------7---------7---------------------------|
|-0-------------------------------------6-6-6-6---5---3--|

|--------------------------------------------------------|
|-------------5---------7---------5----------------------|
|--------7---------7---------7---------------------------|
|-0-------------------------------------0--3--3---1---4--|

     A
2 times)
|--------------------------------------------------------|
|--------------------------------------------------------|
|--------------------------------------------------------|
|-0-0-0--3-3-3--1-1-1--4-4-4--0-0-0--3-3-3--1-1-1--4-----|

|--------------------------------------------------------|
|-------------5---------7---------5----------------------|
|--------7---------7---------7---------------------------|
|-0-------------------------------------6-6-6-6---5---3--|

|--------------------------------------------------------|
|-------------5---------7---------5----------------------|
|--------7---------7---------7---------------------------|
|-0-------------------------------------0--3--3---1---4--|

     B
2 times)
|--------------------------------------------------------|
|--------------------------------------------------------|
|--------------------------------------------------------|
|-0---2---3-3-3-3-3---5--6----0---2---3-3-3-3-3---1--4---|

     A
4 times)
|--------------------------------------------------------|
|--------------------------------------------------------|
|--------------------------------------------------------|
|-0-0-0--3-3-3--1-1-1--4-4-4--0-0-0--3-3-3--1-1-1--4-----|

     C
2 times)
|--------------------------------------------------------|
|--------------------------------------------------------|
|--------------------------------------------------------|
|-5---------3---6------3---5-----------------------------|

|--------------------------------------------------------|
|-------------------------------GUITAR-------------------|
|--------------------------------ONLY--------------------|
|--0--3--3---1---4---------------------------------------|

|--------------------------------------------------------|
|--------------------------------------------------------|
|------------------/7------------------------------------|
|---------------------------------------0--3--3---1---4--|

     A
4 times)
|--------------------------------------------------------|
|--------------------------------------------------------|
|--------------------------------------------------------|
|-0-0-0--3-3-3--1-1-1--4-4-4--0-0-0--3-3-3--1-1-1--4-----|