Birthday Massacre - Nothing And Nowhere Text Guitar Tab

Learn the song with the online tablature player
e|---------1313-----------1111---------1313-----------1111-99--------------|
B|-99-1111-----1111-77-99------99-1111-----1111-77-99----------------------|
G|-------------------------------------------------------------------------|
D|-------------------------------------------------------------------------|
A|-------------------------------------------------------------------------|
D|-------------------------------------------------------------------------|

Intro X4
e|-------------------------------------------------------------------------|
B|-------------------------------------------------------------------------|
G|-------------------------------------------------------------------------|
D|-2----0----5----0--------------------------------------------------------|
A|-2-X4-0-X4-5-X4-0-X4-----------------------------------------------------|
D|-2----0----5----0--------------------------------------------------------|

Verse
Only bass and synth.

Chorus X4
e|-------------------------------------------------------------------------|
B|-------------------------------------------------------------------------|
G|-------------------------------------------------------------------------|
D|-2----0----5----0--------------------------------------------------------|
A|-2-X4-0-X4-5-X4-0-X4-----------------------------------------------------|
D|-2----0----5----0--------------------------------------------------------|

Verse

Chorus X4

Interlude X4
e|-------------------------------------------------------------------------|
B|-------------------------------------------------------------------------|
G|-------------------------------------------------------------------------|
D|-2----0----5-------------------------------------------------------------|
A|-2-X8-0-X8-5-X16---------------------------------------------------------|
D|-2----0----5-------------------------------------------------------------|

End Chorus
e|-------------------------------------------------------------------------|
B|-------------------------------------------------------------------------|
G|-------------------------------------------------------------------------|
D|-2----0----5----0--------------------------------------------------------|
A|-2-X4-0-X4-5-X4-0-X4-----------------------------------------------------|
D|-2----0----5----0--------------------------------------------------------|

We are nothing and nowhere, forever and ever.