Björk - Hyperballad Text Guitar Tab

Learn the song with the online tablature player
_________________
   / Björk          /  I think this song is about this very self-destructive
  / Hyper-Ballad   /  girl who has to deal with lots of problems in her life.
 / Post           /  She plays with the thought of committing suicide, and the
/________________/  only thing that keeps her safe (from herself) is her boy
                   friend, quite sad, but it always me in a calm, happy mood.

To play this 100% you need a 5-stringed bass or to tune you E-string down to 'C'
to reach the these low notes, you can also just play the notes an octave above,
which I've indicated in the brackets. The point with the bass is to play this
resonant, drowning sound, so play the notes on a low string as possible.

Intro
 (the main riff here, so to say - quite annoying it lasts 3 bars and not 4 ;)
   Eb           Bb/D         Cm
G|------------|------------|------------|
D|------------|------------|------------|  \
A|------------|------------|------------|   > x4
E|-(11)-------|-(10)-------|--(8)-------|  /
B|---4--------|---3--------|---1--------|

Verse
8x main riff, then pause for 4 bars

Chorus
   Eb           F            Gm           F
G|------------|------------|------------|------------|
D|------------|------------|------------|------------|
A|------------|--(8)-------|-(10)-------|--(8)-------|
E|-(11)-------|------------|------------|------------|  \
B|---4--------|---6--------|---8--------|---6--------|   \
                                                          > 2x
   Eb           F            Gm           F/A
 |------------|------------|------------|------------|  /
 |------------|------------|------------|------------|
 |------------|--(8)-------|-(10)-------|-(12)-------|
 |-(11)-------|------------|------------|------------|
 |---4--------|---6--------|---8--------|--10--------|

Interlude
2x main riff

Verse
similar to previous

Chorus
repeat for the rest of the song
(actually the bass it replaced by the double bass at the end)