Björk - Possibly Maybe Text Guitar Tab

Learn the song with the online tablature player
artist: bjork
album: post
song: possibly maybe
transcriber: stevey

prob best with a bit of distortion for harmonics and quite lots of reverb also.

intro before bass comes in

E|------t------|
B|-------------|
G|----------t--|   X 4
D|-----------------|
A|-----------------|
E|-----------------|

bass line/ main intro riff

E|-------------------------t------|
B|--------------------------------|
G|------------------------------t-|  X 6
D|-------9--8-------------------------|
A|-------------6--9-------------------|
E|----7-------------------------------|

play bass line a few times until end of verse

E|-----------------------|
B|-----------------------|
G|-----------------------|
D|-------9--8------------|
A|-------------6--9------|
E|----7------------------|

"smittens me with hope"

on high E|--19/2---------------------------------|

     slide down while picking

"Possibly maybe"

    B|----2/5-------------------------------|

"Possibly maybe"

    B|----2/5-------------------------------|

when drums and deep bass line come in if timed right, playin an artifitial
harmonic on first fret, u can recreate the sounds on guitar, shown below

E|--------------------------------------------------------------|
B|------x---------x---------x---------x---------x---------------|
G|------x---------x---------x---------x---------x---------------|
D|------x---------x---------x---------x---------x---------------|
A|------x---------x---------x---------x---------x---------------|
E|------------------------0--2-|

E|--------------------------------------------------------------|
B|------x---------x---------x---------x-------------------------|
G|------x---------x---------x---------x-------------------------|
D|------x---------x---------x---------x-------------------------|
A|------x---------x---------x---------x-------------------------|
E|---------------------0--2----------|

bass from intro comes in while drums and deeper bass carry on

E|-----------------------|
B|-----------------------|
G|-----------------------|
D|-------9--8------------|
A|-------------6--9------|
E|----7------------------|

just before "when we broke up"
bass line/main riff changes to

E|-----------------------|
B|-----------------------|
G|-----------------------|
D|-----11--8-------------|
A|--7---------8--11------|
E|-----------------------|

thats the whole song except from a few violin bits

key

/ slide



t - tremolo pick