Black Eyed Peas - Dont Stop The Party Text Guitar Tab

Learn song with the online tabulature player
e-------------------------------------------------------------------------|
B-------------------------------------------------------------------------|
G-------------------------------------------------------------------------|
D-------5-1-1-1-3---------------------------------------------------------|
A-3-3-3-------------------------------------------------------------------|
E-------------------------------------------------------------------------|

And when the pitch is higher just move up a string, like this


e0--------------------------------------------------------------------------|
B---------------------------------------------------------------------------|
G-------5-1-1-1-3-----------------------------------------------------------|
D-3-3-3---------------------------------------------------------------------|
A---------------------------------------------------------------------------|
E---------------------------------------------------------------------------|