Black Flag - Bastard In Love Text Guitar Tab

Learn the song with the online tablature player
INTRO
       D           C#G  F#          A

   ------------------------       ------------------------------|
   ------------------------       ------------------------------|
   ----7-7-X-X-X-X-6-------       ------------------------------|
   ----7-7-X-X-X-X-6-5--4--       --3-3-33-3--------------------|
   ----5-5-X-X-X-X-4-5--4--       --3-3-33-3--------------------|
   ------------------3--2--       --5-5-55-5--------------------|
        three times                        fourth time

Chorus

     E      G
   --------------------------------------------------------------|
   ------------------7--7---------------------------7--7---------|
   -------------------7--7---------------------------7--7--------|
   --2-2-22-5------/7-----7-78987---2-2-22-5------/7-----7-78987-|
   --2-2-22-5-----------------------2-2-22-5---------------------|
   --0-0-00-3-----------------------0-2-00-3---------------------|

   ------------------------------------------------------------|
   -----------------7-7-------7-7-------7-7-------7-7----------|
   ----------------7-7-------7-7-------7-7-------7-7-----------|
   --2-2-22-5----------x-x-x-----x-x-x-----x-x-x-----x-x-x-----|
   --2-2-22-5----------x-x-x-----x-x-x-----x-x-x-----x-x-x-----|
   --0-0-00-3--------------------------------------------------|