Black Flag - Paralyzed Text Guitar Tab

Learn the song with the online tablature player
e|-------5-------------------------|
B|-----6---8-6---------------------|
G|---7---------7-6-----------------|
D|-8-------------------------------|
A|-----------------7-7-7-7-6-6-6---|
E|-----------------5-5-5-5-4-4-4---|

e|-------5-------------------------|
B|-----6---8-6---------------------|
G|---7---------7-6-----------------|
D|-8-------------------------------|
A|-----------------9-9-9-9-8-8-8-8-|
E|-----------------7-7-7-7-6-6-6-6-|

e|---------------------------------|
B|---------------------------------|
G|-------------------------7-7-7---|
D|-------------------------5-5-5---|
A|-7-7-7---5-5-5---7-7-7-----------|
E|-5-5-5---3-3-3---5-5-5-----------|

e|---------------------------------|
B|---------------------------------|
G|---------------------------------|
D|---------------------------------|
A|-7-7-7---5-5-5---7-7-7-7-9-9-9-9-|
E|-5-5-5---3-3-3---5-5-5-5-7-7-7-7-|

e|-----------------------------------------|
B|-----------------------------------------|
G|-----------------------------------------|
D|-----------------------------------------|
A|-7-7-7---5-5-5---7-7-7-7-9-9-9-9-9-9-9-9-|
E|-5-5-5---3-3-3---5-5-5-5-7-7-7-7-7-7-7-7-|