Black Flag - This Is Good Text Guitar Tab

Learn the song with the online tablature player
This is Good

Verse
e------4-----4-----4-----4-------2-----2-----2-----2--|
B------3-----3-----3-----3-------2-----2-----2-----2--|
G-----------------------------------------------------| x4
D--3-3---3-3---3-3---3-3-----1-1---1-1---1-1---1-1----|
A--5-5---5-5---5-5---5-5-----3-3---3-3---3-3---3-3----|
E--3-3---3-3---3-3---3-3-----1-1---1-1---1-1---1-1----|

Chorus
e-----------------------------------------------------------|
B--2-1--------------2-1-------------2-1---------------------|
G------1-0--------------1-0-------------1-0-----------------|
D----------1-0--------------1-0-------------1-0-------8-7-6-|
A--------------1-0--------------1-0-------------1-0---8-7-6-|
E-----------------------------------------------------6-5-4-|