Black Stone Cherry - Drive Text Guitar Tab

Learn song with the online tabulature player
Black Stone Cherry - Drive
----------------------------------------------------------------------------

Tabbed by: Pete Griffin

Tuning:Db ab db gb bb eb (Drop D half step down)

This is my interpretation of this great song.  I noticed 
no-one else had tabbed it so i thought i'd give it a shot.  
I've tabbed this for one guitar playing what to me are the
most prominant parts. I may in future update it for two 
guitars, although i'm struggling to hear what the second 
guitar is playing in the chorus.

Please rate and comment if you like it!!! and enjoy!!!

Intro
e|------------------------------------------------------|
B|------------------------------------------------------|
G|------------------------------------------------------|
D|-5--3h5--------------------3h5--3h5-------------------|
A|---------5--5\3\1--3-/5-------------5--5\3\1----------|
E|-----------------------------------------------3h5----|

Verse 1
e|------------------------------------------------------|
B|------------------------------------------------------|
G|------------------------------------------------------|
D|-5-5--1-1--3-3-xxx-5-5---5-5--1-1--3-3-xxx-5-5-\------|
A|-5-5--1-1--3-3-xxx-5-5---5-5--1-1--3-3-xxx-5-5-\------|
E|-5-5--1-1--3-3-xxx-5-5---5-5--1-1--3-3-xxx-5-5-\------|
                             
e|------------------------------------------------------|
B|------------------------------------------------------|
G|------------------------------------------------------|
D|-5-5-555--1-1-111--3-3-333--5-5-555-------------------|
A|-5-5-555--1-1-111--3-3-333--5-5-555-------------------|
E|-5-5-555--1-1-111--3-3-333--5-5-555-------------------|
     pm...    pm...    pm...    pm...

e|------------------------------------------------------|
B|------------------------------------------------------|
G|------------------------------------------------------|
D|-5-5-555--1-1-111--3-3-333--5-5-555-------------------|
A|-5-5-555--1-1-111--3-3-333--5-5-555-------------------|
E|-5-5-555--1-1-111--3-3-333--5-5-555-------------------|
     pm...    pm...    pm...    pm...

Chorus
e|-------------------------------------------------------|
B|-------------------------------------------------------|
G|-15-15-15--14-14-14--10-10-10-10-10--7-7-7--5-5-5-3-3-3|
D|-------------------------------------------------------|
A|-13-13-13--12-12-12--8--8--8--8--8---5-5-5--3-3-3-1-1-1|
E|-------------------------------------------------------|

e|-------------------------------------------------------|
B|-------------------------------------------------------|
G|-15-15-15--14-14-14--10-10-10-10-10--7-7-7--5-5-5-7-7-7|
D|-------------------------------------------------------|
A|-13-13-13--12-12-12--8--8--8--8--8---5-5-5--3-3-3-5-5-5|
E|-------------------------------------------------------|


Verse 2
e|-------------------------------------------------------|
B|-------------------------------------------------------|
G|----------------3p0--3p0----5p0---5p0------------------|
D|---8p0---8p0------------------------------8p0---8/10\8-|x2
A|-------------------------------------------------------|
E|-5-----5-----0-1----1----1/3----3-----3/5-----5--------|

e|------------------------------------------------------|
B|------------------------------------------------------|
G|------------------------------------------------------|x2
D|-5-5-555--1-1-111--3-3-333--5-5-555-------------------|
A|-5-5-555--1-1-111--3-3-333--5-5-555-------------------|
E|-5-5-555--1-1-111--3-3-333--5-5-555-------------------|
     pm...    pm...    pm...    pm...

Bridge
e|-------------------------------------------------------|
B|-------------------------------------------------------|
G|-------------------------------------------------------|
D|-1-1-1-1--3-3-3-3--5-5-5-5-----------------------------|
A|-1-1-1-1--3-3-3-3--5-5-5-5--3-5-3-1-3-1--1-1-1-1-------|
E|-1-1-1-1--3-3-3-3--5-5-5-5---------------1-1-1-1-------|

e|-------------------------------------------------------|
B|-------------------------------------------------------|
G|-3-3-3-3-----------------------------------------------|
D|-3-3-3-3-3-3-3-3-3-3-3-3--1-1-1-1--3-3-3-3--5-5-5-5----|
A|-1-1-1-1-3-3-3-3-3-3-3-3--1-1-1-1--3-3-3-3--5-5-5-5----|
E|---------3-3-3-3-3-3-3-3--1-1-1-1--3-3-3-3--5-5-5-5----|

e|-------------------------------------------------------|
B|-------------------------------------------------------|
G|-------------------------------------------------------|
D|--------------1-1-1-1--3-3-3-3--5----------------------|
A|-3-5-3-1-3-1--1-1-1-1--3-3-3-3--5----------------------|
E|--------------1-1-1-1--3-3-3-3--5----------------------|

Solo
e|-------------------------------------------------------|
B|----------------------------------------------------/6-|
G|-5b7r5p3---3----------3h5p3---5-3------------3h5p5-----|
D|---------5--------3h5-------5-----5------3h5-----------|
A|--------------3h5--------------------3h5---------------|
E|-------------------------------------------------------|

e|-----------------13b15-13b15--15-13--------------------|
B|-6b8r6p3----------------------------15-13b15r13--------|
G|---------5b7------------------------------------15-----|
D|--------------x----------------------------------------|
A|--------------x----------------------------------------|
E|--------------x----------------------------------------|


e|-------------------------------------------------------|
B|-13b15r13----11--8-8-8-10-11-13-15-18-18--20b23p18-20--|
G|----------12-------------------------------------------|
D|-------------------------------------------------------|
A|-------------------------------------------------------|
E|-------------------------------------------------------|


Order

Intro
verse 1
chorus x2
verse 2
chorus x2
bridge
solo
chorus x4


| /  slide up
| \  slide down
| h  hammer-on
| p  pull-off
| ~  vibrato
| +  harmonic
| x  Mute note

Hope you enjoyed, please rate and comment!!!
============================================================================