Blanks 77 - Search And Destroy Text Guitar Tab

Learn the song with the online tablature player
Search and Destroy
by Blanks 77

Intro
G------------
D------------
A-0--0-0-0--0
E------------

Verse
G-----------------------------
D--------------------------5-6
A---------5--5--7-7-7-7--5----
E-5-5-5--5--------------------

G------------------------------
D------------------------------
A---------5--5--7-7-7-7-7-7-7-7
E-5-5-5--5---------------------

Chorus
G----------------
D----------------
A-5-5-5-5--------
E--------3--3-3-3

G----------------
D----------------
A-5-5-5-5--------
E--------5--5-5-5