Bleach - Epidermis Girl Text Guitar Tab

Learn the song with the online tablature player
Here it is, its very easy!

Main riff used through the Intro and verses

Main Riff:
G-------------------------------
D-------------------------------
A-----7-------7-6---------------
E-0-0---0-0-0-------------------

Then in the Chorus its just:

G------------------------------------------------------------------------
D------------------------------------------------------------------------
A-----------------------------------0-0-0-0-0-0-0-0----------------------
E-0-0-0-0-0-0-0-0---2-2-2-2-2-2-2-2------------------2-2-2-2-2-2-2-2-----

Have fun, Bleach rules