Bleach - Perfect Family Text Guitar Tab

Learn the song with the online tablature player
Verse1
Intro is the same)

G-------------------------------------------------------------------------------------------
D-------------------------------------------------------------------------------------------
X    2
A---7-7---7-7-----------------------------------------------------------------------------
E----------------4-4---5-5----5-5---7-7---9-9----9-9----7-7---5-5---5-5---7--7-----

Verse 2

G-------------------------------------------------------------------------------------------
D-------------------------------------------------------------------------------------------
X    2
A---7-7---7-7-----------------------------------------------------------------------------
E----------------4-4---5-5----5-5---7-7---9-9----9-9----7-7---5-5---5-5---7--7-----

Chorus

G------------------------------------------------------------------------
D------------------------------------------------------------------------
X  4
A---7-7-----------------------------------------------------------------
E----------4/-5---5---5---5/-9\-7--7--7--7--5--5--7--7-------------

During solo

G---------------------------------------------------------------------------------------------------------
D------------------------------------------------------------------------------------------------
X  3
A--7--7--7--7--7--7---------------------------------------------------------------------------------------
E----------------------4--4--5--5--5--5--5--5--7--7--9--9--9--9--9--9--7--7--5--5--5--5--5--5--7--7

G-------------------------------------------------------------------------------------------------------------
D-------------------------------------------------------------------------------------------------------------
A--7--7--7--7--7--7-------------------------------------------------------------------------------------------
E----------------------4--4--5--5--5--5--5--5--7--7--9--9--9--9--9--9--7--7--5--5--5--5--5--5--5--5--

Chorus

Verse 3
Outro)

G-------------------------------------------------------------------------------------------
D-------------------------------------------------------------------------------------------
X    2
A---7-7---7-7-----------------------------------------------------------------------------
E----------------4-4---5-5----5-5---7-7---9-9----9-9----7-7---5-5---5-5---7--7-----