Blind Melon - St Andrews Fall Text Guitar Tab

Learn the song with the online tablature player
Part 1/Intro
E|-5--5-5--0^5-5-7-5-0-0^5-0-0----------------------|------|
B|-7--7-7--7---7-7-7-7-7-7-7-7----------------------|------|
G|-6--6-6--6-----6-6-6-6-6----------6-6-6(+)--2(+)--|--/6--|
D|-0--0-0--0----------------------7-7-7-7(+)--3(+)--|--/7--|
A|------------------------------7-7-7-7-7(+)--3(+)--|--/7--|
E|------------------------------0-0---0-5(+)--1(+)--|--/5--|

Part 2/Verse (Play twice)
|-5--5-5--0^5-5-7-5-0-0^5-0-0--5--5-5--0^5-5-7-5-0-0^5-0-0------------------------------|
|-7--7-7--7---7-7-7-7-7-7-7-7--7--7-7--7---7-7-7-7-7-7-7-7------------------------------|
|-6--6-6--6-----6-6-6-6-6------6--6-6--6-----6-6-6-6-6----------6-6-6(+)-------6-6-6(+)-|
|-0--0-0--0--------------------0--0-0--0----------------------7-7-7-7(+)-----7-7-7-7(+)-|
|-----------------------------------------------------------7-7-7-7-7(+)---7-7-7-7-7(+)-|
|-----------------------------------------------------------0-0---0-5(+)---0-0---0-5(+)-|

Part 3/Chorus
|------------------------|-----------|-----------------------------|
|------------------------|-----------|-----------------------------|
|-2(+)--6(+)--2(+)--4(+)-|-----------|-----6-6-6(+)-------6-6-6(+)-|
|-3(+)--7(+)--3(+)--5(+)-|---pause---|---7-7-7-7(+)-----7-7-7-7(+)-|
|-3(+)--7(+)--3(+)--5(+)-|-----------|-7-7-7-7-7(+)---7-7-7-7-7(+)-|
|-1(+)--5(+)--1(+)--3(+)-|-----------|-0-0---0-5(+)---0-0---0-5(+)-|

Part 4/Verse (Play twice)
|-5--5-5--0^5-5-7-5-0-0^5-0-0--5--5-5--0^5-5-7-5-0-0^5-0-0------------------------------|
|-7--7-7--7---7-7-7-7-7-7-7-7--7--7-7--7---7-7-7-7-7-7-7-7------------------------------|
|-6--6-6--6-----6-6-6-6-6------6--6-6--6-----6-6-6-6-6----------6-6-6(+)-------6-6-6(+)-|
|-0--0-0--0--------------------0--0-0--0----------------------7-7-7-7(+)-----7-7-7-7(+)-|
|-----------------------------------------------------------7-7-7-7-7(+)---7-7-7-7-7(+)-|
|-----------------------------------------------------------0-0---0-5(+)---0-0---0-5(+)-|

Part 5/Chorus
|------------------------|-----------|
|------------------------|-----------|
|-2(+)--6(+)--2(+)--4(+)-|-----------|
|-3(+)--7(+)--3(+)--5(+)-|---pause---|
|-3(+)--7(+)--3(+)--5(+)-|-----------|
|-1(+)--5(+)--1(+)--3(+)-|-----------|

Part 6 (Play several times, each time progressively faster)
|---------------------|-----|-----|-----|-----|-----|-----|-----|---------------|
|---------------------|-----|-----|-----|-----|-----|-----|-----|---------------|
|---------------------|-----|-----|-----|-----|-----|-----|-----|---------------|
|-7----6-5-4-----3(+)-|--%--|--%--|--%--|--%--|--%--|--%--|--%--|---------------|
|-7-X--6-5-4--X--3(+)-|-----|-----|-----|-----|-----|-----|-----|---------------|
|-5-X--4-3-2--X--1(+)-|-----|-----|-----|-----|-----|-----|-----|-/7--let ring--|

Part 7
|----------------------3-|
|----------------------3-|
|-4-4-----4----4-4-----4-|
|-4-4-----5----4-4-----5-|
|-2-2---2-5----2-2---2-5-|
|-2-2-2---3----2-2-2---3-|

Part 8/Outro
|-----------------------------------|
|-----------------------------------|
|-4(+)--4(+)------------------------|
|-4(+)--5(+)--7\5(+)--7\5(+)--7--5--|
|-2(+)--5(+)--7\5(+)--7\5(+)--7--5--|
|-2(+)--3(+)--5\3(+)--5\3(+)--5--3--|