Blindside - Swallow Text Guitar Tab

Learn the song with the online tablature player
INTRO
----------------------------------------|
----------------------------------------|
----------------------------------------|
---4-4-4-4-4-4-4-4-4-4-4-4-4-4-4-4------|
---4-4-4-4-4-4-4-4-4-4-4-4-4-4-4-4------|
---2-2-2-2-2-2-2-2-2-2-2-2-2-2-2-2------| Until The Intro Is Over

CHORUS
-----------------------------------------------------------------|
-----------------------------------------------------------------|
-----------------------------------------------------------------|
-7-7-7-7-7-7-7-7-7-7-7-7-7-7-7-7-6-6-6-6-6-6-6-6-9-9-9-9-9-9-9-9-|
-7-7-7-7-7-7-7-7-7-7-7-7-7-7-7-7-6-6-6-6-6-6-6-6-9-9-9-9-9-9-9-9-|
-5-5-5-5-5-5-5-5-5-5-5-5-5-5-5-5-4-4-4-4-4-4-4-4-7-7-7-7-7-7-7-7-|

And Thats It