Blink-182 - All The Small Things Text Guitar Tab

Learn song with the online tabulature player
All The Small Things
Blink 182
Enema of the State

Tabbed by Simon Mooney (lasttraintostafford@yahoo.co.uk)

Yes, I know this has already been tabbed! But this sounds much more accurate 
and slightly easier to play fast. It's all played on one guitar from what I hear. I was using the track from 'The Mark, Tom and Travis Show (The Enema Strikes Back)' as my reference.

My advice is to just crank up the distortion and play it! The song is very easy to play because it's only power chords and sing along to it. The 
lyrics are not hard and are easily sung along with.


Intro/Bridge:

I am not going to tab the rhythm, you can get that from the cd, but use a strum not all downstrokes. You can get the speed better that way :)

Intro

E||------------------||
B||------------------||
G||------------------||
D||-5--3-------------||
A||-5--3-------------||
E||-3--1-------------||


e||-----------------------------------------------||
B||----------6666-5555----------------------------||
G||-55555555-5555-5555----------------------------||
D||-55555555-3333-3333-55555555-5-x-x-x-x-3-3-3---||
A||-33333333-----------55555555-5-x-x-x-x-3-3-3---||
E||--------------------33333333-3-x-x-x-x-1-1-1---||


Verse:  (All the small things...)


e|-------------------------------------------------|
B|-------------------------------------------------|
G|-------------------------------------------------|
D|-555555555---------------------------------------|
A|-333333333-55555555-33333333-55555555------------|
E|-----------33333333-11111111-33333333------------|

|-----------------PALM MUTED-----------------------|

Bridge

E||--------||
B||--------||
G||-5-5-~--||
D||-5-5-~--||
A||-3-3-~--||
E||--------||


Chorus:  (Say it ain't so...)

E||---8---8---8---8---8---8---8---8---8---8---8--||
B||----------------------------------------------||
G||-5---5---5---5---5---5---5---5---5---5---5----||
D||----------------------------------------------||
A||----------------------------------------------||
E||----------------------------------------------||


e||----------------------------------------------------||
B||----------------------------------------------------||
G||---555555555555555555-------------------------------||
D||---555555555555555555-55555555-33333333-------------||
A||---333333333333333333-55555555-33333333-------------||
E||----------------------33333333-11111111-------------||


The small interlude after the chorus is pretty simple. As I don't know much 
about time signatures, just listen to the CD to get the rhythm.

Interlude:


e||--------------------------------------------------||
B||--------------------------------------------------||
G||-55555555-10101010-9999-777777777-x-x-x-x-5-5-5---||
D||-XXXXXXXX-X-X-X-X--XXXX-XXXXXXXXX-x-x-x-x-5-5-5---||
A||-33333333-8-8-8-8--7777-555555555-x-x-x-x-3-3-3---||
E||--------------------------------------------------||

Solo

The song goes into some kind of solo, that is all palm muted.

E||---------------------------------------------------------------||
B||---------------------------------------------------------------||
G||-5---5---5---5---5---5---5---5---5---5---5---5---4---4---4---4-||
D||---5---5---5---5---5---5---5---5---5---5---5---5---5---5---5---||
A||---------------------------------------------------------------||
E||---------------------------------------------------------------||

|--------------------------PALM MUTED-----------------------------||

Outro

e|-------------------------------------------------------------------|
B|-------------------------------------------------------------------|
G|-----------------------------------5-~-----------------------------|
D|-X-X-3------X-X-3-------X-X-3------5-~-----------------------------|
A|-X-X-3------X-X-3-------X-X-3------3-~-----------------------------|
E|-X-X-1------X-X-1-------X-X-1--------------------------------------|

Key of Symbols

~ Let Ring
x Palm Mute


Lyrics

All the small things
True care, truth brings
I'll take one lift
Your ride, best trip

Always, I know
You'll be at my show
Watching, waiting
Commiserating

Say it ain't so, I will not go
Turn the lights off, carry me home
Na na na na na na na na na na
Na na na na na na na na na na
Na na na na na na na na na na
Na na na na na na na na na na

Late night, come home
Work sucks, I know
She left me roses by the stairs
Surprises let me know she cares

Say it ain't so, I will not go
Turn the lights off, carry me home
Na na na na na na na na na na
Na na na na na na na na na na
Na na na na na na na na na na
Na na na na na na na na na na

Say it ain't so, I will not go
Turn the lights off, carry me home
Keep your head still, I'll be your thrill
The night will go on, my little windmill

Say it ain't so, I will not go (na na na na na na na na na na)
Turn the lights off, carry me home (na na na na na na na na na na)
Keep your head still, I'll be your thrill (na na na na na na na na na na)
The night will go on, the night will go on (na na na na na na na na na na)
My little windmill

There we have it! Hope you all have a lot of fun with this tab.