Blink-182 - Dont Tell Me Its Over Text Guitar Tab

Learn the song with the online tablature player
        don't tell me thats it's over - Blink 182

X=Heavy struming

                        Intro

       listen for the timing it's a bit tricky
e|--------------------------------------------------------|
B|--------------------------------------------------------|
G|--------------------------------------------------------|
D|-5-----55-----5-----55----------------------------------|
A|-3-----33-----3-----33----------------------------------|
E|--------------------------------------------------------|

Chorus
hold on)
e|--------------------------------------------------------|
B|--------------------------------------------------------|
G|--------------------------------------------------------|
D|-5555555555555555---------------------------------------|
A|-3333333333333333-55555555-33333333---------------------|
E|------------------33333333-11111111---------------------|

Verse
don't t....)
e|--------------------------------------------------------|
B|--------------------------------------------------------|
G|--------------------------------------------------------|
D|-5XXXXXXXXXXXXXXX---------------------------------------|
A|-3XXXXXXXXXXXXXXX-5XXXXXXX-3XXXXXXX---------------------|
E|------------------3XXXXXXX-1XXXXXXX---------------------|

                        Solo thingy
e|--------------------------------------------------------|
B|--------------------------------------------------------|
G|--------------------------------------------------------|
D|---2-0-2---2----2-0-2---2----2-0-2---2----2-0-2---2-----|
A|-3-------3---3--------3---3--------3---3--------3---3---|
E|--------------------------------------------------------|

                        Other thing (whats with the....)
e|--------------------------------------------------------|
B|--------------------------------------------------------|
G|--------------------------------------------------------|
D|-5-55555555555555---------------------------------------|
A|-3-33333333333333-5-555555-3-333333---------------------|
E|------------------3-333333-1-111111---------------------|
                Order
Intro x1
Chorus x 2
Verse x4
solo thingy x1
other thing x4
chorus x2
verse x4
solo thingy x1
chorus x4
verse x8