Blink-182 - Sex With His Sister Text Guitar Tab

Learn the song with the online tablature player
palm mute

E|-------------------------------------------------------------------------------|
B|-------------------------------------------------------------------------------|
G|-------------------------------------------------------------------------------|
D|-------------------6-6-6-6-6-6-6-6---8-8-8-8-8-8-8-8---------------------------|
A|-4-4-4-4-4-4-4-4---4-4-4-4-4-4-4-4---6-6-6-6-6-6-6-6---9-9-9-9-9-9-9-9---------|
E|-2-2-2-2-2-2-2-2---------------------------------------7-7-7-7-7-7-7-7---------|

End on

E|----------------------------------------------------------------------------|
B|----------------------------------------------------------------------------|
G|----------------------------------------------------------------------------|
D|--4-------------------------------------------------------------------------|
A|--4-------------------------------------------------------------------------|
E|--2-------------------------------------------------------------------------|