Blood Brothers - Doctor Doctor Text Guitar Tab

Learn the song with the online tablature player
                                 DOCTOR! DOCTOR!
                        As recorded by The Blood Brothers
                   (From the 2000 Album THIS ADULTERY IS RIPE)

Gtr I (D A D G B E) - 'Untitled'
Gtr II (D A D G B E) - 'Untitled'

 "She shacked up..."
  Q=116
  D5
 4/4
  Gtr I
  E E E E E E E E    E  E E E E E E E    E  E E E E E E E    E  E E E E E Q
|-----------------|-------------------|-------------------|-------------------|
|---6---6---6---6-|-----6---6---5---5-|-----5---5---5---5-|-----5---5---5-----|
|-7---7---7---7---|--7----7---7---7---|--6----6---6---6---|--6----6---6---6/--|
|-----------------|-------------------|-------------------|-------------------|
|-----------------|-------------------|-------------------|-------------------|
|-----------------|-------------------|-------------------|-------------------|
|
| Gtr II
|                    >
| W                 +W                  +W                  +W
|-----------------|-------------------|-------------------|-------------------|
|-----------------|-------------------|-------------------|-------------------|
|-----------------|-------------------|-------------------|-------------------|
|-0---------------|-(0)---------------|-(0)---------------|-(0)---------------|
|-0---------------|-(0)---------------|-(0)---------------|-(0)---------------|
|-0---------------|-(0)---------------|-(0)---------------|-(0)---------------|

  [N.C.]
  Gtr I
    E E  E E  E E  E E    E E  E E  E E  E E
|----------------------|---------------------|
|-----9----9----9----9-|----9----9----9----9-|
|-/10---10---10---10---|-10---10---10---10---|
|----------------------|---------------------|
|----------------------|---------------------|
|----------------------|---------------------|

    E  E  E Q   E  E E   +E   E  E Q   E  E E  a
|----------------------|-------------------------|
|-----10----9--10----9-|-(9)-10----9--10----9\-x-|
|-/11----11-------11---|--------11-------11------|
|----------------------|-------------------------|
|----------------------|-------------------------|
|----------------------|-------------------------|

    D5
    Gtr I
    E E E E E E E E    E  E E E E E E E
||------------------|-------------------|
||o---6---6---6---6-|-----6---6---5---5-|
||--7---7---7---7---|--7----7---7---7---|
||------------------|-------------------|
||o-----------------|-------------------|
||------------------|-------------------|
|
|   Gtr II
|                      >
|   W                 +W
||------------------|-------------------|
||o-----------------|-------------------|
||------------------|-------------------|
||--0---------------|-(0)---------------|
||o-0---------------|-(0)---------------|
||--0---------------|-(0)---------------|

   E  E E E E E E E    E  E E E E E Q
|-------------------|-------------------|
|-----5---5---5---5-|-----5---5---5-----|
|--6----6---6---6---|--6----6---6---6/--|
|-------------------|-------------------|
|-------------------|-------------------|
|-------------------|-------------------|
|
| +W                  +W
|-------------------|-------------------|
|-------------------|-------------------|
|-------------------|-------------------|
|-(0)---------------|-(0)---------------|
|-(0)---------------|-(0)---------------|
|-(0)---------------|-(0)---------------|

  [N.C.]
  Gtr I
    E E  E E  E E  E E    E E  E E  E E  E E
|----------------------|---------------------|
|-----9----9----9----9-|----9----9----9----9-|
|-/10---10---10---10---|-10---10---10---10---|
|----------------------|---------------------|
|----------------------|---------------------|
|----------------------|---------------------|

  1.,2.
    E  E  E Q   E  E E   +E   E  E Q   Q.   a  3x
|----------------------|-----------------------||
|-----10----9--10----9-|-(9)-10----9--10\---x-o||
|-/11----11-------11---|--------11-------------||
|----------------------|-----------------------||
|----------------------|----------------------o||
|----------------------|-----------------------||

  3.
  D5
  Gtr I
    ~~~~~~~~~~~~~~~~~~~~~~~~~~~~~~~~~~~~~~~~~~~~~
    E  E  E Q    E  E E   +E   E  E Q    E  E E
|-----------------------|-----------------------|
|-----10----9---10----9-|-(9)-10----9---10----9-|
|-/11----11--------11---|--------11--------11---|
|-----------------------|-----------------------|
|-----------------------|-----------------------|
|-----------------------|-----------------------|
|
| Gtr II
    E  E  E E E  E  E E    E   E  E E E  E  E E
|-----------------------|-----------------------|
|-----------------------|-----------------------|
|-----------------------|-----------------------|
|---0--0--0-0-0--0--0-0-|--0---0--0-0-0--0--0-0-|
|---0--0--0-0-0--0--0-0-|--0---0--0-0-0--0--0-0-|
|---0--0--0-0-0--0--0-0-|--0---0--0-0-0--0--0-0-|

                                              B B
 ~~~~~~~~~~~~~~~~~~~~~~~~~~~~~~~~~~~~~~~~~~~~~~~
  +E   E  E Q    E  E E   +E   E  E Q    E  E E
|-----------------------|------------------------|
|-(9)-10----9---10----9-|-(9)-10----9---10----9--|
|--------11--------11---|--------11--------11----|
|-----------------------|------------------------|
|-----------------------|------------------------|
|-----------------------|------------------------|
|
   E   E  E E E  E  E E    E   E  E E E  E  E E
|-----------------------|------------------------|
|-----------------------|------------------------|
|-----------------------|------------------------|
|--0---0--0-0-0--0--0-0-|--0---0--0-0-0--0--0-0--|
|--0---0--0-0-0--0--0-0-|--0---0--0-0-0--0--0-0--|
|--0---0--0-0-0--0--0-0-|--0---0--0-0-0--0--0-0--|

 "This knife cut fashion..."
  Q=185
  Cm        Bm  Cm                       Bm  Cm                     Bm  Cm
  Gtr I
   E   E  E  E   E   E  Q       E   E  E  E   E   E  Q     E   E  E  E   E   E  Q
|--------------------------||---------------------------|--------------------------|
|--4---4-----3---4---4-----||o--4---4-----3---4---4-----|--4---4-----3---4---4-----|
|--5---5-----4---5---5-----||---5---5-----4---5---5-----|--5---5-----4---5---5-----|
|-(5)-(5)---(4)-(5)-(5)----||--(5)-(5)---(4)-(5)-(5)----|-(5)-(5)---(4)-(5)-(5)----|
|--------------------------||o--------------------------|--------------------------|
|--------------------------||---------------------------|--------------------------|

            Bm  Cm                     Bm  Cm
   E   E  E  E   E   E  Q     E   E  E  E   E   E  Q
|--------------------------|-----------------------------||
|--4---4-----3---4---4-----|--4---4-----3---4---4-------o||
|--5---5-----4---5---5-----|--5---5-----4---5---5--------||
|-(5)-(5)---(4)-(5)-(5)----|-(5)-(5)---(4)-(5)-(5)-------||
|--------------------------|----------------------------o||
|--------------------------|-----------------------------||

    Cm        Bm  Cm          Bm    Cm        Bm  Cm          Bm
     E   E  E  E   E   E   E   E     E   E  E  E   E   E   E   E
||--------------------------------|-------------------------------|
||o--4---4-----3---4---4---4---3--|--4---4-----3---4---4---4---3--|
||---5---5-----4---5---5---5---4--|--5---5-----4---5---5---5---4--|
||--(5)-(5)---(4)-(5)-(5)-(5)-(4)-|-(5)-(5)---(4)-(5)-(5)-(5)-(4)-|
||o-------------------------------|-------------------------------|
||--------------------------------|-------------------------------|

  Cm        Bm  Cm          Bm    Cm        Bm  Cm          Bm
   E   E  E  E   E   E   E   E     E   E  E  E   E   E   E   E
|-------------------------------|--------------------------------||
|--4---4-----3---4---4---4---3--|--4---4-----3---4---4---4---3--o||
|--5---5-----4---5---5---5---4--|--5---5-----4---5---5---5---4---||
|-(5)-(5)---(4)-(5)-(5)-(5)-(4)-|-(5)-(5)---(4)-(5)-(5)-(5)-(4)--||
|-------------------------------|-------------------------------o||
|-------------------------------|--------------------------------||

    Cm
     Q   H.         Q   H.         Q   H.         Q   H.
||---------------|--------------|--------------|-------------||
||o--4-----------|--4-----------|--4-----------|--4---------o||
||---5-----------|--5-----------|--5-----------|--5----------||
||--(5)----------|-(5)----------|-(5)----------|-(5)---------||
||o--------------|--------------|--------------|------------o||
||---------------|--------------|--------------|-------------||

  D5
  W          E E H.
|----------|-----------|
|----------|-----------|
|----------|-----------|
|-0--------|-----------|
|-0--------|-0-0-------|
|-0--------|-0-0-------|

 "Now cover girl..."
  D
  E E B         E E B         E E B         E E B
|-------------|-------------|-------------|-----------|
|-------------|-------------|-------------|-----------|
|-------------|-------------|-------------|-----------|
|-------------|-------------|-------------|-----------|
|-5-5---------|-5-5---------|-5-5---------|-5-5-------|
|-0-0---------|-0-0---------|-0-0---------|-0-0-------|

  Dbb5
  E E B         E E B         E E B         E E B
|-------------|-------------|-------------|-----------|
|-------------|-------------|-------------|-----------|
|-------------|-------------|-------------|-----------|
|-------------|-------------|-------------|-----------|
|-4-4---------|-4-4---------|-4-4---------|-4-4-------|
|-0-0---------|-0-0---------|-0-0---------|-0-0-------|

  Dbb5
   E  E B          E  E B          E  E B          E  E B
|---------------|---------------|---------------|-------------|
|---------------|---------------|---------------|-------------|
|---------------|---------------|---------------|-------------|
|---------------|---------------|---------------|-------------|
|-11-11---------|-11-11---------|-11-11---------|-11-11-------|
|--0--0---------|--0--0---------|--0--0---------|--0--0-------|

  D5
   E  E B          E  E B          E  E B          E  E B
|---------------|---------------|---------------|-------------|
|---------------|---------------|---------------|-------------|
|---------------|---------------|---------------|-------------|
|---------------|---------------|---------------|-------------|
|-12-12---------|-12-12---------|-12-12---------|-12-12-------|
|--0--0---------|--0--0---------|--0--0---------|--0--0-------|

   "I wanna cut..."
    D
    Gtr I
    E E E Q   E Q     E E E Q   E Q     E E E Q   E Q     E E E Q   E Q
||------------------|-----------------|-----------------|-----------------|
||o-----------------|-----------------|-----------------|-----------------|
||----1---1---------|---1---1---------|---1---1---------|---1---1---------|
||------------4-2---|-----------4-2---|-----------4-2---|-----------4-2---|
||o-----------------|-----------------|-----------------|-----------------|
||------------------|-----------------|-----------------|-----------------|
|
|   Gtr II
    E E E E E E E E   E E E E E E E E   E E E E E E E E   E E E E E E E E
||------------------|-----------------|-----------------|-----------------|
||o-----------------|-----------------|-----------------|-----------------|
||------------------|-----------------|-----------------|-----------------|
||------------------|-----------------|-----------------|-----------------|
||o-5-5-5-5-5-5-5-5-|-5-5-5-5-5-5-5-5-|-5-5-5-5-5-5-5-5-|-5-5-5-5-5-5-5-5-|
||--0-0-0-0-0-0-0-0-|-0-0-0-0-0-0-0-0-|-0-0-0-0-0-0-0-0-|-0-0-0-0-0-0-0-0-|

  D
  E E E Q   E Q     E E E Q   E Q     E E E Q   E Q     E E E Q   E Q
|-----------------|-----------------|-----------------|-------------------||
|-----------------|-----------------|-----------------|------------------o||
|---1---2---------|---1---2---------|---1---2---------|---1---2-----------||
|-----------4-2---|-----------4-2---|-----------4-2---|-----------4-2-----||
|-----------------|-----------------|-----------------|------------------o||
|-----------------|-----------------|-----------------|-------------------||
|
  E E E E E E E E   E E E E E E E E   E E E E E E E E   E E E E E E E E
|-----------------|-----------------|-----------------|-------------------||
|-----------------|-----------------|-----------------|------------------o||
|-----------------|-----------------|-----------------|-------------------||
|-----------------|-----------------|-----------------|-------------------||
|-5-5-5-5-5-5-5-5-|-5-5-5-5-5-5-5-5-|-5-5-5-5-5-5-5-5-|-5-5-5-5-5-5-5-5--o||
|-0-0-0-0-0-0-0-0-|-0-0-0-0-0-0-0-0-|-0-0-0-0-0-0-0-0-|-0-0-0-0-0-0-0-0---||

  D5
  E E E Q   E Q     E E E Q   E Q     E E E Q   E Q     E E E Q   E Q
|-----------------|-----------------|-----------------|------------------|
|-----------------|-----------------|-----------------|------------------|
|---1---1---------|---1---1---------|---1---1---------|---1---1----------|
|-----------4-2---|-----------4-2---|-----------4-2---|-----------4-2----|
|-----------------|-----------------|-----------------|------------------|
|-----------------|-----------------|-----------------|------------------|
|
  E E E E E E E E   E E E E E E E E   E E E E E E E E   E E E E E E E E
|-----------------|-----------------|-----------------|------------------|
|-----------------|-----------------|-----------------|------------------|
|-----------------|-----------------|-----------------|------------------|
|-0-0---0---0-0---|-0-0---0---0-0---|-0-0---0---0-0---|-0-0---0---0-0----|
|-0-0---0---0-0---|-0-0---0---0-0---|-0-0---0---0-0---|-0-0---0---0-0----|
|-0-0---0---0-0---|-0-0---0---0-0---|-0-0---0---0-0---|-0-0---0---0-0----|

  D5
  E E E Q   E Q     E E E Q   E Q     E E E Q   E Q     E E E Q   E Q
|-----------------|-----------------|-----------------|------------------|
|-----------------|-----------------|-----------------|------------------|
|---1---2---------|---1---2---------|---1---2---------|---1---2----------|
|-----------4-2---|-----------4-2---|-----------4-2---|-----------4-2----|
|-----------------|-----------------|-----------------|------------------|
|-----------------|-----------------|-----------------|------------------|
|
  E E E E E E E E   E E E E E E E E   E E E E E E E E   E E E E E E E E
|-----------------|-----------------|-----------------|------------------|
|-----------------|-----------------|-----------------|------------------|
|-----------------|-----------------|-----------------|------------------|
|-0-0---0---0-0---|-0-0---0---0-0---|-0-0---0---0-0---|-0-0---0---0-0----|
|-0-0---0---0-0---|-0-0---0---0-0---|-0-0---0---0-0---|-0-0---0---0-0----|
|-0-0---0---0-0---|-0-0---0---0-0---|-0-0---0---0-0---|-0-0---0---0-0----|

  D5                                             [N.C.]
  W             W          W          W           E  E  E  E  E  E  E  E
|-------------|----------|----------|----------|----------11-------11------|
|-------------|----------|----------|----------|----15-------15-------15---|
|-------------|----------|----------|----------|-14----14-------14---------|
|-------------|----------|----------|----------|---------------------------|
|-------------|----------|----------|----------|---------------------------|
|-------------|----------|----------|----------|---------------------------|
|
| E H.      E   W          W          W           W
|-------------|----------|----------|----------|---------------------------|
|-------------|----------|----------|----------|---------------------------|
|-------------|----------|----------|----------|---------------------------|
|-0-----------|----------|----------|----------|---------------------------|
|-0-----------|----------|----------|----------|---------------------------|
|-0-----------|----------|----------|----------|---------------------------|

   "Run! Run Run!"
    D5
     E  E  E  E  E  E  E  E    E  E  E  E  E  E  E  E
||-----------11-------11----|----------11-------11----|
||o----15-------15-------15-|----15-------15-------15-|
||--14----14-------14-------|-14----14-------14-------|
||--------------------------|-------------------------|
||o-------------------------|-------------------------|
||--------------------------|-------------------------|
|
|    Q     E  Q     E  Q       W
||--------------------------|-------------------------|
||o-------------------------|-------------------------|
||--------------------------|-------------------------|
||---0--------0--------0----|-------------------------|
||o--0--------0--------0----|-------------------------|
||---0--------0--------0----|-------------------------|

   E  E  E  E  E  E  E  E    E  E  E  E  E  E  E  E
|----------11-------11----|----------11-------11-----||
|----15-------15-------15-|----15-------15-------15-o||
|-14----14-------14-------|-14----14-------14--------||
|-------------------------|--------------------------||
|-------------------------|-------------------------o||
|-------------------------|--------------------------||
|
|  Q     E  Q     E  Q       W
|-------------------------|--------------------------||
|-------------------------|-------------------------o||
|-------------------------|--------------------------||
|--0--------0--------0----|--------------------------||
|--0--------0--------0----|-------------------------o||
|--0--------0--------0----|--------------------------||

    [N.C.]
    Gtrs I, II
     E  E  E  E  E  E  E  E    E  E  E  E  E  E  E  E
||-----------11-------11----|----------11-------11----|
||o----15-------15-------15-|----15-------15-------15-|
||--14----14-------14-------|-14----14-------14-------|
||--------------------------|-------------------------|
||o-------------------------|-------------------------|
||--------------------------|-------------------------|

   E  E  E  E  E  E  E  E    E  E  E  E  E  E  E  E
|----------11-------11----|----------11-------11-----||
|----15-------15-------15-|----15-------15-------15-o||
|-14----14-------14-------|-14----14-------14--------||
|-------------------------|--------------------------||
|-------------------------|-------------------------o||
|-------------------------|--------------------------||

 "You keep coming back.."
  [N.C.]
   E  E  E   E   E  E  E   E     E  E  E   E   E  E  E   E
|-----------------------------|-----------------------------|
|-14-15-12-(12)-14-15-12-(12)-|-14-15-12-(12)-14-15-12-(12)-|
|-----------------------------|-----------------------------|
|-----------------------------|-----------------------------|
|-----------------------------|-----------------------------|
|-----------------------------|-----------------------------|

   E  E  E   E   E  E  E   E     E  E  E   E   E  E  E   E
|-----------------------------|------------------------------|
|-14-15-12-(12)-14-15-12-(12)-|-14-15-12-(12)-14-15-12-(12)--|
|-----------------------------|------------------------------|
|-----------------------------|------------------------------|
|-----------------------------|------------------------------|
|-----------------------------|------------------------------|

  [N.C.]
   E  E  E   E   E  E  E   E     E  E  E   E   E  E  E   E
|-----------------------------|-----------------------------|
|-12-14-11-(11)-12-14-11-(11)-|-12-14-11-(11)-12-14-11-(11)-|
|-----------------------------|-----------------------------|
|-----------------------------|-----------------------------|
|-----------------------------|-----------------------------|
|-----------------------------|-----------------------------|

   E  E E  E   E  E E  E     E  E E  E   E  E E  E
|-------------------------|--------------------------|
|-10-11-8-(8)-10-11-8-(8)-|-10-11-8-(8)-10-11-8-(8)--|
|-------------------------|--------------------------|
|-------------------------|--------------------------|
|-------------------------|--------------------------|
|-------------------------|--------------------------|

  Q=190
  C
   E  E  E   E   E  E  E   E     E  E  E   E   E  E  E   E
|-----------------------------|-----------------------------|
|-14-15-12-(12)-14-15-12-(12)-|-14-15-12-(12)-14-15-12-(12)-|
|-----------------------------|-----------------------------|
|-----------------------------|-----------------------------|
|-----------------------------|-----------------------------|
|-----------------------------|-----------------------------|

  B B
   E  E  E   E   E  E  E   E     E  E  E   E   E  E  E   E
|-----------------------------|------------------------------|
|-14-15-12-(12)-14-15-12-(12)-|-14-15-12-(12)-14-15-12-(12)--|
|-----------------------------|------------------------------|
|-----------------------------|------------------------------|
|-----------------------------|------------------------------|
|-----------------------------|------------------------------|

  [N.C.]
   E  E  E   E   E  E  E   E     E  E  E   E   E  E  E   E
|-----------------------------|-----------------------------|
|-12-14-11-(11)-12-14-11-(11)-|-12-14-11-(11)-12-14-11-(11)-|
|-----------------------------|-----------------------------|
|-----------------------------|-----------------------------|
|-----------------------------|-----------------------------|
|-----------------------------|-----------------------------|

   E  E E  E   E  E E  E     E  E E  E   E  Q.
|-------------------------|-----------------------|
|-10-11-8-(8)-10-11-8-(8)-|-10-11-8-(8)-10-11-----|
|-------------------------|-----------------------|
|-------------------------|-----------------------|
|-------------------------|-----------------------|
|-------------------------|-----------------------|

  Q=200
  [N.C.]
  E H.      E   Wx6
|-------------|--------*|
|-8-----------|--------*|
|-------------|--------*|
|-------------|--------*|
|-------------|--------*|
|-------------|--------*|