Blue October - Drilled A Wire Through My Cheek Text Guitar Tab

Learn the song with the online tablature player
Blue October
Drilled A Wire Through My Cheek
Foiled

Verse 1
bass with a little guitar part
E----------|
B-----4-2~-|
G----5-----|
D-3h5------|
A----------|
E----------|

Chorus
E----------------------------|
B----------------------------|
G----------------------------|
D-8~-x-xx8~-x-xx8~-x-xx11-10-|
A-8~-x-xx8~-x-xx8~-x-xx11-10-|
E-6~-x-xx6~-x-xx6~-x-xx-9--8-|

E----------------------------|
B----------------------------|
G----------------------------|
D-8~-x-xx8~-x-xx8~-x-xx11-13-|
A-8~-x-xx8~-x-xx8~-x-xx11-13-|
E-6~-x-xx6~-x-xx6~-x-xx-9-11-|

a 2nd guitar plays this:
E-------------------------------|
B-------------------------------|
G-15~-x-xx15~-x-xx15~-x-xx18-17-|
D--x--x-xx-x--x-xx-x--x-xx-x--x-|
A-13~-x-xx13~-x-xx13~-x-xx16-15-|
E-------------------------------|

E-------------------------------|
B-------------------------------|
G-15~-x-xx15~-x-xx15~-x-xx18-20-|
D--x--x-xx-x--x-xx-x--x-xx-x--x-|
A-13~-x-xx13~-x-xx13~-x-xx16-18-|
E-------------------------------|

Verse 2
listen when to play
E------------------------------|
B-14-13-11~-----4-2~-14-13-11~-|
G--------------5---------------|
D-----------3h5----------------|
A------------------------------|
E------------------------------|

E--------------------|
B-14-13-11~-----4-2~-|
G--------------5-----|
D-----------3h5------|
A--------------------|
E--------------------|

Verse 3
listen when to play
E-----------------------------|
B-----4-2~-----4-2~-14-13-11~-|
G----5--------5---------------|
D-3h5------3h5----------------|
A-----------------------------|
E-----------------------------|

Order:

Verse 1
-1x

Chorus
--2x

Verse 2
-1x

Chorus
--2x

Verse 3
-1x

Chorus
--6x