Blue Oyster Cult - Subhuman Text Guitar Tab

Learn the song with the online tablature player
                             Subhuman - Blue Oyster Cult

My very first tab. I will improve it if some of you find a better way to play a part.

One of my favorite solo's by my favourite band; Blue Oyster Cult, Subhuman.

Key:

| /   slide up
| \   slide down
| h   hammer-on
| p   pull-off
| ~   vibrato
| +   harmonic
| x   Mute note
| b   Bend
| pb  Pre-bend
| br  Bend release
| pbr Pre-bend release
| brb Bend release bend

1.53...

e|--------------------------------------------------------------------------|
B|--------------------------------------------------------------------------|
G|-----5-7-9--7s9s12s14~~---14-14-14-14s17-17~~-------14---------10----10---|
D|---7-----------------------------------------17-17------10h12-----12------|
A|--------------------------------------------------------------------------|
E|--------------------------------------------------------------------------|

e|--------------------------------------------------------------------------|
B|-----------------------------10-13----------------------------------------|
G|-12-12-12-12-12-12-12-12--12----------14-12-------------------------------|
D|-----------------------------------14-------12-14--10-12------------------|
A|----------------------------------------------------------12-10-----------|
E|--------------------------------------------------------------------------|

e|---------------------12-10~---13----10---13----10-------------------------|
B|------------------13-------------12---------12----------------------------|
G|--------------x-x---------------------------------------------------------|
D|-----------x-x------------------------------------------------------------|
A|-----10-12----------------------------------------------------------------|
E|--12----------------------------------------------------------------------|

e|--12--8h10--8-------------------------------------------------------------|
B|---------------8s10-------------------------------------------------------|
G|--------------------10-7---10----12b--12b-12b-12br------------------------|
D|--------------------------------------------------------------------------|
A|--------------------------------------------------------------------------|
E|--------------------------------------------------------------------------|

e|-----------------------------------------9-12-12--------------------------|
B|--------------------------------------10----------------------------------|
G|--12p10-12--12-12-12s14--14-14----5s9-------------------------------------|
D|--------------------------------------------------------------------------|
A|--------------------------------------------------------------------------|
E|--------------------------------------------------------------------------|

e|--------------------------------------------------------------------------|
B|--------------------------------------------------------------------------|
G|--------------------------------------------------------------------------|
D|--------------------------------------------------------------------------|
A|----3h5-5--3h5-5--3h5-5--------3h5-5--3h5-5--3h5-5------------------------|
E|-------------------------3--5-----------------------3--5------------------|

e|---------------------------------------8b-----------------------------------------------8b-8s10|
B|--------------------------------8br-------8br/-----------------------------------8br-----------|
G|-----------------------------10-----10----------------------------------------10-----10--------|
D|-----------------------10-12--------------------------------------------10-12------------------|
A|------10p8----8s10--10---------------------------------10p8----8s10--10------------------------|
E|-8h10------10-------------------------------------8h10------10---------------------------------|

e|--13b-15b----12h13p12--12----12--------------------------------------12-13-13b--15br-----------|
B|---------------------------13----13------------------------13--13h15------------------15-15----|
G|------------------------------------14---------------12h14-------------------------------------|
D|---------------------------------------15-14---14h15-------------------------------------------|
A|-----------------------------------------------------------------------------------------------|
E|-----------------------------------------------------------------------------------------------|

e|---13--12h13p12-----12-------------------------------------------------------------------------|
B|-----------------15----15p13-15--13h15p13--13------------------------13-13---------------------|
G|----------------------------------------------14-12-14---------14-14---------------------------|
D|-----------------------------------------------------------------------------------------------|
A|-----------------------------------------------------------------------------------------------|
E|-----------------------------------------------------------------------------------------------|

e|------------12-12----17------------------13-------------13-12----------------------------------|
B|------15-15------------------13-15----13----13-15-s-17--------15--13h15p13---------13----------|
G|14-14---------------------14-------14----------------------------------------12h14----14--12s14|
D|-----------------------------------------------------------------------------------------------|
A|-----------------------------------------------------------------------------------------------|
E|-----------------------------------------------------------------------------------------------|

cheers