Bob Marley - Real Situation Text Guitar Tab

Learn the song with the online tablature player
Ok here it is, I am sure dis is right.

Intro
e--3--3--3--3--3--3--3--3--------------------------------------------------------------|
b--3--3--4--4--3--3--4--4--------------------------------------------------------------|
g--4--4--5--5--4--4--5--5--------------------------------------------------------------|
d--------------------------------------------------------------------------------------|
a--------------------------------------------------------------------------------------|
E--------------------------------------------------------------------------------------|

Verse
e--3--3--4--4--3--3--4--4--3--3--7--8--4--3--3--3--------------------------------------|
b--3--3--5--5--3--3--5--5--3--3--6--7--4--4--3--3--------------------------------------|
g--4--4--6--6--4--4--6--6--4--4--5--6--5--5--4--4--------------------------------------|
d--------------------------------------------------------------------------------------|
a--------------------------------------------------------------------------------------|
E--------------------------------------------------------------------------------------|

Well that is all JAH Bless All!

I Luv I JAH!i!