Bob Marley - Time Will Tell Text Guitar Tab

Learn the song with the online tablature player
                           TIME WILL TELL - Bob Marley

      C#          G#

e|----11----11----8----8----|
B|----9-----9-----9----9----|
G|----8-----8-----8----8----|   Rhythm
D|----11----11----10---10---|
A|--------------------------|
E|--------------------------|

e|--11--11--11--13--11--9---11--|
B|--9---9---9---9---9---9---9---|
G|--8---8---8---8---8---8---8---|   Lead
D|--11--11--11--11--11--11--11--|
A|------------------------------|
E|------------------------------|