Bob Marley - Who The Cap Fit Text Guitar Tab

Learn the song with the online tablature player
                       WHO THE CAP FIT - Bob Marley

    A#                  A#

e|--6----6----6----6----6----6----6----6--|
B|--6----6----6----6----6----6----6----6--|
G|--7----7----7----7----7----7----7----7--|
D|--8----8----8----8----8----8----8----8--|
A|--8----8----8----8----8----8----8----8--|
E|--6----6----6----6----6----6----6----6--|

                                             Verse
    Cm                  Cm

e|--8----8----8----8----8----8----8----8--|
B|--8----8----8----8----8----8----8----8--|
G|--8----8----8----8----8----8----8----8--|
D|--10---10---10---10---10---10---10---10-|
A|--10---10---10---10---10---10---10---10-|
E|--8----8----8----8----8----8----8----8--|

    D#                  F

e|--6----6----6----6----8----8----8----8--|
B|--8----8----8----8----10---10---10---10-|
G|--8----8----8----8----10---10---10---10-|  Bridge
D|--8----8----8----8----10---10---10---10-|
A|--6----6----6----6----8----8----8----8--|
E|----------------------------------------|

    Gm                  Cm

e|--3----3----3----3----3----3----3----3--|
B|--3----3----3----3----4----4----4----4--|
G|--3----3----3----3----5----5----5----5--|  Chorus
D|--5----5----5----5----5----5----5----5--|
A|--5----5----5----5----3----3----3----3--|
E|--3----3----3----3----------------------|