Bodysnatchers - Easy Life Text Guitar Tab

Learn the song with the online tablature player
i tried to be a lot more accurate on the timing for this one, but as
always you will get a better idea if you listen to the recording. This is
taken from a copy of the single on The 2 Tone Collection.

verses

G:-----------------------------------|---------------------------------
D:----------5---5--------------------|----------5----------5-----------
A:------------------5---5---3---2----|-------------------5---5---------
E:--3---3----------------------------|--3---3--------------------------

chorus

G:-----------------------------------|-------------------------------
D:----------5---5-----------5---5----|----------3---3----------------
A:--3---3-----3---3-5---5-----5---5--|--3-3-3-----5---5-----5------3-
E:-----------------------------------|-------------------------------

G:-----------------------------------|-------------------------------
D:----------5---5-----------5---5----|----------3---3----------------
A:--3-3-3-----3---3-5-5-5-----5---5--|--3-3-3-----5---5-----3------5-
E:-----------------------------------|-------------------------------

G:-----------
D:-----------
A:--5-3-2-0--
E:-----------

then there is this mellow part in the song:

G:---------------------------------|------------------------------
D:----------5---5------------------|----------5---5---5-----------
A:--3---3-----------5---5---3---2--|--3---3-----5---5---5---------
E:---------------------------------|------------------------------