Bodysnatchers - Ruder Than You Text Guitar Tab

Learn the song with the online tablature player
have a recording of the song handy for the fine details, but here is the
jist.

verses
play two rounds of all this...for intro play once.

------------------------|------------------------|-----------------------
------------------------|------------------------|-----------------------
-3--3-----3-----3--5--3-|-5--5-----5-----5--7--5-|-7--7--5--3----7--5--3-
-------5----------------|-------5----------------|-----------------------

------------------------|------------------------|-----------------------
------------------------|------------------------|-----------------------
-8--8--7--3-----8--7--3-|-10-10-8--5-----3--5--7-|-10-10-8--5----3--5--7-
------------------------|------------------------|-----------------------

chorus
play riff 1 three times, then riff 2 two times. Two of those cycles makes
for the chorus.

1.                      2.
------------------------|-------------------------
------------------------|-------------------------
-3--3-----3-----3--5----|-10-10-8--5-----3--5--7--
-------5----------------|-------------------------

outro is just pretty much a variant of the chorus, and will be evident how
it varies from listening to the recording.