Bodysnatchers - Too Experienced Text Guitar Tab

Learn the song with the online tablature player
riff 1 is what is played throughout most of the song (chorus and verses)
in some places without singing there is only riff 1a. Listen to recording
to verify what goes where.

riff 1a

G:--------------------2-----|--------------------7--------
D:-------2--2---5--5-----5--|--------3--3--7--7----7------
A:-3--3---------------------|--5--5-----------------------
E:--------------------------|-----------------------------

riff 1b
G:--------------------------|-----------------------------
D:--------------------------|-----------------------------
A:--------5--7--------------|--------2--2--5--5--2--0-----
E:--7--7--------7--5--3--0--|--3--3-----------------------

after the second chorus, replacement for riff 1a:

G:--------------------------|-----------------------------
D:--------------------------|--------3--3--7--7--3--------
A:--------------------------|--5--5-----------------5-----
E:--------------------------|-----------------------------

....then back to normal