Bombshell Rocks - From Here And On Text Guitar Tab

Learn the song with the online tablature player
Band: Bombshell Rocks
Song: From Here And On
Album: From Here And On
Year: 2003

Intro/Chorus
G|--------------------------------------------------------------|
D|--------------------------------------------------------------|
A|-------44444-2222222222---------------------------------------|
E|-22222--------------------------------------------------------|x3

G|--------------------------------------------------------------|
D|--------------------------------------------------------------|
A|-------22222-4444444444---------------------------------------|
E|-22222--------------------------------------------------------|

Verse
G|--------------------------------------------------------------|
D|--------------------------------------------------------------|
A|-99999/222----------------------------------------------------|
E|--------------------------------------------------------------|x8

Pre Chorus
G|--------------------------------------------------------------|
D|--------------------------------------------------------------|
A|-66666-22222------------66666-44444-2-2-2~--------------------|
E|-------------2222222222---------------------------------------|

Chorus
G|--------------------------------------------------------------|
D|--------------------------------------------------------------|
A|-------44444-2222222222---------------------------------------|
E|-22222--------------------------------------------------------|x3

G|--------------------------------------------------------------|
D|--------------------------------------------------------------|
A|-------22222-4444444444---------------------------------------|
E|-22222--------------------------------------------------------|

Verse
G|--------------------------------------------------------------|
D|--------------------------------------------------------------|
A|-99999/222----------------------------------------------------|
E|--------------------------------------------------------------|x8

Pre Chorus
G|--------------------------------------------------------------|
D|--------------------------------------------------------------|
A|-66666-22222------------66666-44444-2-2-2~--------------------|
E|-------------2222222222---------------------------------------|

Chorus
G|--------------------------------------------------------------|
D|--------------------------------------------------------------|
A|-------44444-2222222222---------------------------------------|
E|-22222--------------------------------------------------------|x3

G|--------------------------------------------------------------|
D|--------------------------------------------------------------|
A|-------22222-4444444444---------------------------------------|
E|-22222--------------------------------------------------------|

Bridge
G|--------------------------------------------------------------|
D|--------------------------------------------------------------|
A|-----2x8-4x8--------------------------------------------------|
E|-5x8----------------------------------------------------------|x4

G|--------------------------------------------------------------|
D|--------------------------------------------------------------|
A|-------44444-2222222222--------22222-44444-44-5-6-------------|
E|-22222-------------------22222--------------------------------|

Chorus
G|--------------------------------------------------------------|  |x2
D|--------------------------------------------------------------|  |x2
A|-------66666-4444444444---------------------------------------|  |x2
E|-44444--------------------------------------------------------|x3|x2
                                                                   |x2
G|--------------------------------------------------------------|  |x2
D|--------------------------------------------------------------|  |x2
A|-------44444-6666666666---------------------------------------|  |x2
E|-44444--------------------------------------------------------|  |x2

Outro
G|--------------------------------------------------------------|
D|--------------------------------------------------------------|
A|-8~-6~-4~-----------------------------------------------------|
E|--------------------------------------------------------------|