Bootsy Collins - Ahh The Name Is Bootsy Baby Text Guitar Tab

Learn the song with the online tablature player
OOOOOOh now we're goin' ta SUCK A BOOGIE!
fig 1
G-------------------------------------------------|
D-------------------------------------------------|
A--5-3~----------5-------------5-x3~~-------------|
E---------x5--x5-------x5---5---------------------|

fig 2                             p
G--------------------------------------------|
D--------------------------------x7p5--------|
A--5(x)-----------------3--------------------|
E-------2-3-4-055/----5---5------------------|

Ain't nuttin' but a party baby!