Bouncing Souls - Blind Date Text Guitar Tab

Learn the song with the online tablature player
Riff 1
x3)
e-----------------------------------------------------------------------|
B-----------------------------------------------------------------------|
G--7--7--10-9-10-------------------9-10--------10-9-10------------------|
D--7--7--10-9-10--10--10-10-10-10--9-10--8--8--10-9-10--7--7-7-7--8--10-|
A--5--5---8-7-8---10--10-10-10-10--7--8--8--8---8-7--8--7--7-7-7--8--10-|
E------------------8---8--8--8--8--------6--6-----------5--5-5-5--6---8-|

Verse 1
D                        C
I wish that you could see the you that I see
Bb                A            Bb  C
Not some bull**** glamour fantasy
D                          C
Put down the magazines and see
Bb             A  Bb  C
See a real beauty

Chorus
(play Riff 1 slower, I know this looks confusing, but you'll get it)
D,f-e-f,C,e-f
Bb   f-e-f A     Bb C
See a real beauty
 (repeat)

Verse 2
D                        C
I wish that you could see the glory that I see
Bb               A      Bb  C
Shining like the winter sun
D                     C
I wish that you could see
Bb               A  Bb  C
See the true glory

Chorus 2
D,f-e-f,C,e-f
Bb     f-e-f A    Bb C
See the true glory
 (Repeat)

Solo
x3
e---------------------13--|--15-15-15--15-15-15-15--|
B--15-15-15--15-15-17-----|-------------------------|
G-------------------------|-------------------------|
D-------------------------|-------------------------|
A-------------------------|-------------------------|
E-------------------------|-------------------------|
                        x3
e---------------------13--|-------------------------|
B--15-15-15--15-15-17-----|--13-13-13--13-13-13-13--|
G-------------------------|-------------------------|
D-------------------------|-------------------------|
A-------------------------|-------------------------|
E-------------------------|-------------------------|
           x2               x4
e------------|--13------------|--/17b-16-14-16-14-13-|
B--13-15-15--|-----h15-15-15--|----------------------|
G------------|----------------|----------------------|
D------------|----------------|----------------------|
A------------|----------------|----------------------|
E------------|----------------|----------------------|
           x6?
e------------|------------------------|
B--13-15-15--|--13-13-13-13-13-13-13--|
G------------|------------------------| Wheh!!
D------------|------------------------|
A------------|------------------------|
E------------|------------------------|

D,D,D,C x2

Bridge
D                                      C
Wish there was something I could do to make you see
D                                         C
Wish there was something I could say, but you won't hear me
D       e                f    C            D
I guess some things that I, I can't explain
e                f       C
Some things that I could never change

Verse 3
D                   C           Bb                A Bb C
I read the thoughts in your eyes when you look at me
D                  C              Bb                  A  Bb C
I see the real you when you smile, I see the real beauty

Chorus 1 x2 (faster)