Bouncing Souls - Break-up Song Text Guitar Tab

Learn the song with the online tablature player
BREAK
UP SONG - Bouncing Souls

:Bouncing Souls::
.Break-Up Song..

Intro
e|---------------------------------------------------------3-|
B|-----3---------------3-------3-------3---------------3-----|
G|-------------7-------------------------------7-------------|
D|---5---5---7---7-------5---5---5---5---5---7---7-------5---|
A|-3-------5---------5-----3-------3-------5---------5-------|
E|-----------------3-------------------------------3---------|

Verse
"I don't want this anymore"
Is all I heard her say
As I grabbed my stuff and headed out the door
e|---------------------------|
B|---------------------------|
G|-7-----------5-----------7-|
D|-7-----5-----5-----5-----7-|
A|-5-----5-----3-----5-----5-|
E|-------3-----------3-------|

With my music in my phones
And my bike under my feet
Things started to look different as I got out on the street
e|---------------------------|
B|---------------------------|
G|-7-----------5-----------7-|
D|-7-----5-----5-----5-----7-|
A|-5-----5-----3-----5-----5-|
E|-------3-----------3-------|

Sometimes I see her face
In the new people that I meet
We're not who we thought we were when we saw this dream
e|---------------------------|
B|---------------------------|
G|-7-----------5-----------7-|
D|-7-----5-----5-----5-----7-|
A|-5-----5-----3-----5-----5-|
E|-------3-----------3-------|

Chorus 1
Sometimes when I just can't sleep I hear
The words you said to me:
e|---------------------------------------|
B|---------------------------------------|
G|-5-----7-----------5-----5-----7-------|
D|-5-----7-----5-----5-----5-----7-----5-|
A|-3-----5-----5-----3-----3-----5-----5-|
E|-------------3-----------------------3-|

"How did you get so deep inside of me?"
e|---------------------------------------|
B|---------------------------------------|
G|-5-----7-----------5-----5-----7-------|
D|-5-----7-----5-----5-----5-----7-----5-|
A|-3-----5-----5-----3-----3-----5-----5-|
E|-------------3-----------------------3-|

Solo x2
do this twice
e|------------------------------------------------|
B|-3-333h5653h53-333h56-5-3-5-55555-3-333h5653h53-|
G|------------------------------------------------|
D|------------------------------------------------|
A|------------------------------------------------|
E|------------------------------------------------|

Verse
I wake up and I move on
I admit the past is gone
I wake up and I refine
e|---------------------------|
B|---------------------------|
G|-7-----------5-----------7-|
D|-7-----5-----5-----5-----7-|
A|-5-----5-----3-----5-----5-|
E|-------3-----------3-------|

Moving foward to the next lifetime
I leave it all behind
e|---------------------------|
B|---------------------------|
G|-7-----------5-----------7-|
D|-7-----5-----5-----5-----7-|
A|-5-----5-----3-----5-----5-|
E|-------3-----------3-------|

Chorus 2
Sometimes when I just can't sleep I hear
The words you said to me:
e|---------------------------------------|
B|---------------------------------------|
G|-5-----7-----------5-----5-----7-------|
D|-5-----7-----5-----5-----5-----7-----5-|
A|-3-----5-----5-----3-----3-----5-----5-|
E|-------------3-----------------------3-|

"Sometimes it takes a painful loss, to realize you are free"
e|---------------------------------------|
B|---------------------------------------|
G|-5-----7-----------5-----5-----7-------|
D|-5-----7-----5-----5-----5-----7-----5-|
A|-3-----5-----5-----3-----3-----5-----5-|
E|-------------3-----------------------3-|

Outro
"How did you get so deep inside of me?"
e|---------------------------------------------------------3-|
B|-----3---------------3-------3-------3---------------3-----|
G|-------------7-------------------------------7-------------|
D|---5---5---7---7-------5---5---5---5---5---7---7-------5---|
A|-3-------5---------5-----3-------3-------5---------5-------|
E|-----------------3-------------------------------3---------|

How did you get so deep inside of me?"
e|---------------------------------------------------------3-|
B|-----3---------------3-------3-------3---------------3-----|
G|-------------7-------------------------------7-------------|
D|---5---5---7---7-------5---5---5---5---5---7---7-------5---|
A|-3-------5---------5-----3-------3-------5---------5-------|
E|-----------------3-------------------------------3---------|

| /  slide up
| \  slide down
| h  hammer-on
| p  pull-off
| ~  vibrato
| +  harmonic
| x  Mute note