Bouncing Souls - Gold Song Text Guitar Tab

Learn the song with the online tablature player
Legend
*=play a lot
. and x=mute
~=hold
bp=bend and then pull off
b=bend
p=pull
br=bend/release
T=Tremolo pick
/=slide up
\=slide down
w=wah-wah
xby=bend to

Great song.

I just updated it with the same solo that I posted a few days ago.

I didn't know how to update so there is another individual tab for the
solo.

Intro Pt. 1 both guitars
E|--|
B|--|
G|4*|
D|x*|
A|2*|
E|--|

Intro Pt.2 Lead (I'm not sure about this)
E|--------------------------------|
B|--------------------------------|
G|44-66-77-66-(x3)-99-66-77-66(x5)|
D|--------------------------------|
A|--------------------------------|
E|--------------------------------|

Intro Pt. 2 Rhythm
E|-----------------------------------|
B|-----------------------------------|
G|4-4-4444-7-7-7777------------------|
D|4-4-4444-7-7-7777-5-5-5555-7-7-7777|x2
A|2-2-2222-5-5-5555-5-5-5555-7-7-7777|
E|------------------3-3-3333-5-5-5555|

Verse 1
x2
E|----------------------------------------|
B|----------------------------------------|
G|-44-4-44-4-77-7-77-7--------------------|
D|-44-4-44-4-77-7-77-7-55-5-55-5-77-7-77-7|x2
A|-22-2-22-2-55-5-55-5-55-5-55-5-77-7-77-7|
E|---------------------33-3-33-3-55-5-55-5|
pm ..   ..   ..   ..   ..   ..   ..   ..

then play

E|-----------------------------------|
B|-----------------------------------|
G|4-4-4444-7-7-7777------------------|
D|4-4-4444-7-7-7777-5-5-5555-7-7-7777|x2
A|2-2-2222-5-5-5555-5-5-5555-7-7-7777|
E|------------------3-3-3333-5-5-5555|

Chorus
E|-----------------------|
B|-----------------------|
G|--------------7777-----|
D|5-5555-5-5555-7777-7777|x3
A|5-5555-5-5555-5555-7777|
E|3-3333-3-3333------5555|

Repeat Intro Pt. 2

Verse 2

E|----------------------------------------|
B|----------------------------------------|
G|-44-4-44-4-77-7-77-7--------------------|
D|-44-4-44-4-77-7-77-7-55-5-55-5-77-7-77-7|x2
A|-22-2-22-2-55-5-55-5-55-5-55-5-77-7-77-7|
E|---------------------33-3-33-3-55-5-55-5|
pm ..   ..   ..   ..   ..   ..   ..   ..

E|-----------|
B|-----------|
G|44-77------|
D|44-77-55-77|x4
A|22-55-55-77|
E|------33-55|

background lead for that part
E|7T-|
B|---|
G|---|
D|---|
A|---|
E|---|

E|-----------------------------------|
B|-----------------------------------|
G|4-4-4444-7-7-7777------------------|
D|4-4-4444-7-7-7777-5-5-5555-7-7-7777|x2
A|2-2-2222-5-5-5555-5-5-5555-7-7-7777|
E|------------------3-3-3333-5-5-5555|

Repeat Chorus

E|------------------------------------|
B|------------------------------------|
G|4-4-7bp4-4-7bp4-7bp4-4-4-7bp4-4-7bp4|
D|------------------------------------|
A|------------------------------------|
E|------------------------------------|

E|7b-7b7b-777-101010-10p7-----------------------------------|
B|------------------------10p7---10p7-----------------------|
G|------------------------------------10-9br-7---7-9br-7---7|
D|---------------------------------------------9---------9--|
A|----------------------------------------------------------|
E|----------------------------------------------------------|

E|------------------------7-10T-7-10T/12T-------------7t-10T-12T-|
B|------------7-10---7-10----------------------7T-10T------------|
G|-----7-9-10----------------------------------------------------|
D|-7-9-----------------------------------------------------------|
A|----------------------------------------\\\\-------------------|
E|---------------------------------------------------------------|

E|18b19~~---------|
B|----------------|
G|----------------|
D|----------------|
A|----------------|
E|---------0wwwwww|

Bridge?
E|------------|
B|------------|
G|4~----4~----|
D|4~5~7~4~5~7!|
A|2~5~7~2~5~7!|
E|--3~5~--3~5!|

Verse 3
E|-----------------------------------|
B|-----------------------------------|
G|4-4-4444-7-7-7777------------------|
D|4-4-4444-7-7-7777-5-5-5555-7-7-7777|x3
A|2-2-2222-5-5-5555-5-5-5555-7-7-7777|
E|------------------3-3-3333-5-5-5555|

Repeat Chorus twice

Ending Lead
E|--|
B|--|
G|4*|
D|--|
A|--|
E|--|

Ending Rhythm
E|--|
B|--|
G|4*|
D|4*|
A|2*|
E|--|