Bowling For Soup - Belgium Text Guitar Tab

Learn the song with the online tablature player
Intro
E-------------------------
B-------------------------
G-------------------------
D-9--4--5--7-5-7-9-9--4--2
A-------------------------
E-------------------------

Verse
E----------------
B----------------
G----7--5--9-7---
D-5--7--5--9-7---
A-5--5--3--7-5---
E-3--------------

Chorus
E---------------------
B---------------------
G------7777-9999-55-77
D-5555-7777-9999-55-77
A-5555-5555-7777-33-55
E-3333----------------

end song on G