Bowling For Soup - Get Happy Text Guitar Tab

Learn the song with the online tablature player
Bowling For Soup
                  Get happy
            Hangover You Don't Deserve

U can read my review on BFS live at liverpool.

             Intro

 E--------------------|
 B--------------------|
 G-7-7-7-7-7-7-7-7-7--|
 D-x-x-x-x-x-x-x-x-x--|
 A-5-5-5-5-5-5-5-5-5--|
 E--------------------|

Verse
words start) she packed her shit....

 E---------------------------------------------------------|
 B---------------------------------------------------------|
 G-7-7-7-7-7-7-7-7-7--5~--------------7-7-7-7-7-7-7-7-7-7--|
 D-x-x-x-x-x-x-x-x-x--5~------5~------x-x-x-x-x-x-x-x-x-x--|
 A-5-5-5-5-5-5-5-5-5--3~------5~------5-5-5-5-5-5-5-5-5-5--|
 E----------------------------3~---------------------------| x 2

Chours=
      Maybe your Right.........

 E---------------------------------------------------------------------|
 B---------------------------------------------------------------------|
 G-----------------------------------7-7-7-7-7-7-7-7--4-4-4-4-4-4-4-4--|
 D-5-5-5-5-5-5-5-5--7-7-7-7-7-7-7-7--7-7-7-7-7-7-7-7--4-4-4-4-4-4-4-4--|
 A-5-5-5-5-5-5-5-5--7-7-7-7-7-7-7-7--5-5-5-5-5-5-5-5--2-2-2-2-2-2-2-2--|
 E-3-3-3-3-3-3-3-3--5-5-5-5-5-5-5-5------------------------------------|

 E----------------------------------------------------------------------|
 B----------------------------------------------------------------------|
 G-----------------------------------7-7-7-7-7-7-7-7-7-7-7-7-7-7-7-7-7--|
 D-5-5-5-5-5-5-5-5--7-7-7-7-7-7-7-7--x-x-x-x-x-x-x-x-x-x-x-x-x-x-x-x-x--|
 A-5-5-5-5-5-5-5-5--7-7-7-7-7-7-7-7--5-5-5-5-5-5-5-5-5-5-5-5-5-5-5-5-5--|
 E-3-3-3-3-3-3-3-3--5-5-5-5-5-5-5-5-------------------------------------|

Verse

 E---------------------------------------------------------|
 B---------------------------------------------------------|
 G-7-7-7-7-7-7-7-7-7--5~--------------7-7-7-7-7-7-7-7-7-7--|
 D-x-x-x-x-x-x-x-x-x--5~------5~------x-x-x-x-x-x-x-x-x-x--|
 A-5-5-5-5-5-5-5-5-5--3~------5~------5-5-5-5-5-5-5-5-5-5--|
 E----------------------------3~---------------------------| x2

2nd Chorus

 E----------------------------------------------------------------------|
 B----------------------------------------------------------------------|
 G-----------------------------------7-7-7-7-7-7-7-7--4-4-4-4-4-4-4-4---|
 D-5-5-5-5-5-5-5-5--7-7-7-7-7-7-7-7--7-7-7-7-7-7-7-7--4-4-4-4-4-4-4-4---|
 A-5-5-5-5-5-5-5-5--7-7-7-7-7-7-7-7--5-5-5-5-5-5-5-5--2-2-2-2-2-2-2-2---|
 E-3-3-3-3-3-3-3-3--5-5-5-5-5-5-5-5-------------------------------------|

 E--------------------------------------------------------------------|
 B--------------------------------------------------------------------|
 G-----------------------------------7-7-7-7-7-7-7-7--4-4-4-4-4-4-4-4-|
 D-5-5-5-5-5-5-5-5--7-7-7-7-7-7-7-7--7-7-7-7-7-7-7-7--4-4-4-4-4-4-4-4-|
 A-5-5-5-5-5-5-5-5--7-7-7-7-7-7-7-7--5-5-5-5-5-5-5-5--2-2-2-2-2-2-2-2-|
 E-3-3-3-3-3-3-3-3--5-5-5-5-5-5-5-5-----------------------------------|

Interlude

 E--------------------------------------------------------------------------|
 B--------------------------------------------------------------------------|
 G-7-7-7-7-7-7-7-7--5-5-5-5-5-5-5-5-----------------------------------------|
 D-7-7-7-7-7-7-7-7--5-5-5-5-5-5-5-5---   -5-5-5-5-5-5-5-5--7-7-7-7-7-7-7-7--|
 A-5-5-5-5-5-5-5-5--3-3-3-3-3-3-3-3---x3 -5-5-5-5-5-5-5-5--7-7-7-7-7-7-7-7--|
 E------------------------------------   -3-3-3-3-3-3-3-3--5-5-5-5-5-5-5-5--|

2ND chorus

    E----------------------------------------------------------------------|
    B----------------------------------------------------------------------|
    G-----------------------------------7-7-7-7-7-7-7-7--4-4-4-4-4-4-4-4---|
    D-5-5-5-5-5-5-5-5--7-7-7-7-7-7-7-7--7-7-7-7-7-7-7-7--4-4-4-4-4-4-4-4---|
    A-5-5-5-5-5-5-5-5--7-7-7-7-7-7-7-7--5-5-5-5-5-5-5-5--2-2-2-2-2-2-2-2---|
    E-3-3-3-3-3-3-3-3--5-5-5-5-5-5-5-5-------------------------------------|

 E--------------------------------------------------------------------|
 B--------------------------------------------------------------------|
 G-----------------------------------7-7-7-7-7-7-7-7--4-4-4-4-4-4-4-4-|
 D-5-5-5-5-5-5-5-5--7-7-7-7-7-7-7-7--7-7-7-7-7-7-7-7--4-4-4-4-4-4-4-4-|
 A-5-5-5-5-5-5-5-5--7-7-7-7-7-7-7-7--5-5-5-5-5-5-5-5--2-2-2-2-2-2-2-2-|
 E-3-3-3-3-3-3-3-3--5-5-5-5-5-5-5-5-----------------------------------|

E-------------------------------------------|
B-------------------------------------------|
G-------------------------------------------|
D-5-5-5-5-5-5-5-5---7-7-7-7-7-7-7-7---------|
A-5-5-5-5-5-5-5-5---7-7-7-7-7-7-7-7---------|
E-3-3-3-3-3-3-3-3---5-5-5-5-5-5-5-5---------|

           Coda

    E-----------------------------------|
    B-----------------------------------|
    G-7-7-7-7-7-7-7-7-------------------|
    D-7-7-7-7-7-7-7-7--5-5-5-5-5-5-5-5--|
    A-5-5-5-5-5-5-5-5--5-5-5-5-5-5-5-5--|
    E------------------3-3-3-3-3-3-3-3--| x 4

      Ending

    E--------------------|
    B--------------------|
    G-7-7-7-7-7-7-7-7-7--|
    D-x-x-x-x-x-x-x-x-x--|
    A-5-5-5-5-5-5-5-5-5--|
    E--------------------|

eNJOY dUDES