Bowling For Soup - Last Rock Show Text Guitar Tab

Learn the song with the online tablature player
                     The Last Rock Show - Bowling For Soup

Intro
e|-----------------|
B|-----------------|
G|--//-------\\----|
D|--// Slide \\----|
A|--//-------\\----|
E|-----------------|

Intro
cont):
e|--------------------|-----------------------|
B|--------------------|O---------------------O| Play
G|-5------------------|-----------------------|  Three
D|-5---5-3---------5--|-----------------5-----|<  Times
A|-3---5-3---3-3-3----|O--3-3-3-3--3-3-3-----O|
E|-----3-1---.-.-.----|---.-.-.-.--.-.-.------|

__________________________________________________________________________

First Guitar A (Lead): Played With Rhythm Guitar A
e|------------------|----------|---------------------------------|--------|
B|------------------| Play ----|---------------------------------|--------|
G|-5---10--9---12---|  Three --|-5---10--9---7----5---7--9---5---|--------|
D|-x----x--x----x---|<  Times -|-x----x--x---x----x---x--x---x---|-7b-8\--|
A|-3----8--7---10---|----------|-3----8--7---5----3---5--7---3---|-7b-8\--|
E|------------------|----------|---------------------------------|--------|

Second Guitar A (Rhythm): Played With Lead Guitar A
e|-----------------------------------------------------|-----------|
B|O---------------------------------------------------O| Play -----|
G|-----------------------------------------------------|  Three ---|
D|-----------5-3---------5-3---------5-3---------5-3---|<   Times -|
A|O--3-3-3-3-----3-3-3-3-----3-3-3-3-----3-3-3-3------O|-----------|
E|---.-.-.-.-----.-.-.-.-----.-.-.-.-----.-.-.-.-------|-----------|

First Guitar B (Lead): Played With Rhythm Guitar B
e|---------------------------------|--------|
B|---------------------------------|--------|
G|-5---10--9---7----5---7--9---5---|--------|
D|-x----x--x---x----x---x--x---x---|-7b-8\--|
A|-3----8--7---5----3---5--7---3---|-7b-8\--|
E|---------------------------------|--------|

Second Guitar B (Rhythm): Played With Lead Guitar B
e|-----------------|---------|
B|-----------------|---------|
G|-5-----------5---|- Pause -|
D|-5---3---5---5---|---------|
A|-3---3---5---3---|---------|
E|-----1---3-------|---------|
____________________________________________________________________________

Verse
e|-----------------------------------------------|
B|-----------------------------------------------|
G|-5---------------5------5----------------------|
D|-5-x32--3--------5-x32--5-x32--3---------------|
A|-3------3-x32----3------3------3-x32-----------|
E|--------1----------------------1---------------|

Verse
cont): Play Two Times         ~~~Lead Guitar~~~
e|---------|------------------------|-----------------|
B|---------|O----------------------O|-----------------|
G|-5-------|-----------------5------|--10--9--7---5---|
D|-5-x32---|---5-----3-------5-x16--|---x--x--x---x---|
A|-3-------|O--5-x8--3--x8---3-----O|---8--7--5---3---|
E|---------|---3-----1--------------|-----------------|

Outro
e|-----------------------------------------|
B|-----------------------------------------|
G|-7--10---9---5-----------5--[ Let -------|
D|-7--10---9---5---5---3---5---- It -------|
A|-5---8---7---3---5---3---3----- Ring ]---|
E|-----------------3---1-------------------|

| /  Slide Up
| \  Slide Down
| b  Bend Note
| .  Mute Note