Brad Paisley - Im Gonna Miss Her Text Guitar Tab

Learn song with the online tabulature player
----------------------------------------------------------------------------
                     I'm Gonna Miss Her - Brad Paisley
----------------------------------------------------------------------------
Tabbed by:      Jason Wilkerson
Email:

Tuning:         Tune down a half step

I looked all over and the tabs I found for the into just didn't sound close
enough to the real thing, so this is what I came up with...  It's kinda hard at first if 
aren't good at bar chords like me, but by doing it over and over, I think I almost have it!

e|---------3----------3---------------3------------------------------------|
B|--------------------0----------3h5-----------1h3-------------------------|
G|---3h4-----------0----------5-------------2------------------------------|
D|-------5--------------0----------------0---------------------------------|
A|-----------0-1-2---------3-----------------------------------------------|
E|---3---------------------------------------------------------------------|

e|----------3----------3--------------------------0--0h2-------------------|
B|-----------------------------------1---------3---------------------------|
G|------0-----------0--------------0--------2------------------------------|
D|-----------------------0-----0h2-------0---------------------------------|
A|------------0-1-2---------3----------------------------------------------|
E|---3---------------------------------------------------------------------|